No te sientas mal
Plastiko
Acordes

Subida por Emanuel



Otras Versiones
Ver. 2

ENTRENA TU OÍDO MUSICAL CON ESTE JUEGO. ¿QUÉ ACORDE ES?. CLIC AQUÍ PARA JUGAR

Cambiar Cifrado
Americano Latino

Cambiar Tonalidad
-1 +1

Partir Pantalla Imprimir FAQ

+A
-A
LETRA CON ACORDES
Intro/Riff

e| -2-2--3-3-5-5/7-7--7-7-5-3-3/5----3-3-2-2---
B| -3-3--5-5-7-7/8-8--8-8-7-5-5/7----5-5-3-3---
G| --------------------------------------------
D| --------------------------------------------
L| --------------------------------------------
E| --------------------------------------------

e| -2-2--3-3-5-5/7-7--7-7-5-3-2----3-3-2-2-----
B| -3-3--5-5-7-7/8-8--8-8-7-5-3----5-5-3-3-----
G| --------------------------------------------
D| --------------------------------------------
L| --------------------------------------------
E| --------------------------------------------

D G D
No, no, no, no, no te sientas mal.. es por amor
G D
Tú abre tu mente y ponte a volar.. no, no, no
A D G
No, no, no, no pares de soñar
D G
Ven y fúmate mi corazón
D
Ven y embriágame con mi sudor
A D
Que hoy quiero enviciarme de tu amor

Solo Sax
D G D
D G D

D G D
No, no, no, no, no te sientas mal.. si no estoy
G D
Yo voy navegando a mi libertad.. con dolor
A D G
No, no, no, no pares de soñar
D G
Ven y fúmate mi corazón
D
Ven y embriágame con mi sudor
A D
Que hoy quiero enviciarme de tu amor

e| -2-2--3-3-5-5/7-7--7-7-5-3-3/5--------------
B| -3-3--5-5-7-7/8-8--8-8-7-5-5/7--------------
G| --------------------------------------------
D| --------------------------------------------
L| --------------------------------------------
E| --------------------------------------------

e| -2-2--3-3-5-5/7--7-5-3-2--------------------
B| -3-3--5-5-7-7/8--8-7-5-3--------------------
G| --------------------------------------------
D| --------------------------------------------
L| --------------------------------------------
E| --------------------------------------------


ACORDES PARA GUITARRA

PIANO UKELELE
D
G
A


COMENTARIOS

Aún no hay comentarios,

¡escribe el primero!

Para hacer una pregunta o dejar un comentario sobre esta canción, debes estar LOGUEADO

Las canciones más tocadas de Plastiko

Toca una Canción al Azar de Plastiko
D
G
A

Nuestro servidor se demoró 0.03 segundos en generar esta página. Eso fue realmente muy rápido!