Dama (Acordes)

Plastiko

Subida por Sissywonga

Compartir


Imprimir FAQ
+A
-A

Texto

Desplazamiento

Transportador

Color de Fondo

Archivos

-A
+A
Hola como estan quiero dedicar esta rola para la "Dama"+ quiero
muy pronto t estare cantando al oido esta cancion
aqui va mi primer transcripcion,es sobre la rola llamada Dama

Intro:
   A           Bm               C#m        Cm          Bm
e/10x3-9-10-11-12-9-----------------9-9-7-9--7--7--9-7-7-9-7--7-
B/----------------10--------------------9-10-10-10-9-9-9-9-9-9--
G/-------------------9--9-9-10-11-11----------------------------
D/--------------------------------------------------------------
A/--------------------------------------------------------------
E/--------------------------------------------------------------

         E
e/-12-12-11-11-10-10-9-9-8-8-7-)
B/-----------------------------)
G/-----------------------------)
D/-----------------------------)
A/-----------------------------)
E/-----------------------------)


  A           Bm               C#m        Cm          Bm
e/--10-9-10-11-12-9-----------------9-9-7-9-9-7-9-9-7---7--
B/-----------------10------------------9------7-----7--9---
G/-------------------9--9-9-10-11-11-----------------------
D/---------------------------------------------------------
A/---------------------------------------------------------
E/---------------------------------------------------------
        E
e/10-10-11-10-9-9-8-9-8-8-7-8-7-)
B/10-10-11-10-9-9-8-9-8-8-7-8-7-)
G/------------------------------)
D/------------------------------)
A/------------------------------)
E/------------------------------)

al final se toca solo la primer parte del intro:
    A           Bm               C#m        Cm          Bm
e/10x3-9-10-11-12-9-----------------9-9-7-9--7--7--9-7-7-9-7--7-
B/----------------10--------------------9-10-10-10-9-9-9-9-9-9--
G/-------------------9--9-9-10-11-11----------------------------
D/--------------------------------------------------------------
A/--------------------------------------------------------------
E/--------------------------------------------------------------



         E
e/-12-12-11-11-10-10-9-9-8-8-7-)
B/-----------------------------)
G/-----------------------------)
D/-----------------------------)
A/-----------------------------)
E/-----------------------------)

Asi es chavos(as)comentarios o aclaciones al mail proximamente
les voy a dar los requintos de bajo una calida estrella y la q
creo es la version mas certera de prende la luz


Video Clip de Dama


ACORDES PARA GUITARRA

PIANO UKELELE
A
Bm
C#m
Cm
B
D
E
G


TOP 20: Las más tocadas de Plastiko


Toca una Canción al Azar de Plastiko

Acordes

Cerrar
A
Bm
C#m
Cm
B
D
E
G

16.23

x

104