Respira
Plastiko
Acordes

Subida por Ramiroalvis


Más Versiones
Ver. 2 Ver. 3 Ver. 4

HERRAMIENTAS

Cambiar Cifrado
Americano Latino

Cambiar Tonalidad
-1 +1

Partir Pantalla Imprimir FAQ

+A
-A

LETRA CON ACORDES

¿Tu Guitarra esta Afinada? PRUEBA NUESTRO NUEVO AFINADOR

Esta, mi primera transcripcion va dedicada a una chava que, aunque
lo unico que me hace es soñar, suspirar y Respirar, ya solo kiero
que simplemente sea feliz y que recuerde un dia, que hizo sonreir
por las mañanas mas de una vez a un hombre y le lleno de felicidad
su corazon. :D

INTRO:

E A E E
e----------------------------------------------
B----------------------------------------------
G-1---2--2s4-2----4--4h6-4---1-1---0h1----0h1--
D--------------------------------------2------2
A----------------------------------------------
E----------------------------------------------

E F#m
Respira, no guardes saliba
A B E
las penas son largas, me lastiman
F#m
Respira, no guardes saliba
A B E
hay penas muy malas, no digas mentiras

F#m
El tiempo ya no existe en mi
A
es momento de vivir
E
esperare lejos de ti

F#m
De no poder vivir
A
de no saber amar
E-B-A
podemos empezar

F#m
No temas mas
A E
respira dentro de mi
F#m
solo di la verdad
A E
la vida te lo dira

E A E E
e---------------------------------------------
B-------------------------------------------5-
G-1---2--2s4-2----4--4h6-4---1-1------1-2-4---
D-----------------------------------2---------
A---------------------------------------------
E---------------------------------------------

E F#m
Respira, respira conmigo
A
es largo el camino
C A E
no acabes con la vida


F#m A
Y es que juraste
E
que no me ibas a soltar
F#m A
y es que juraste,
E
que a mi lado ibas a estar

F#m
No temas mas
A E
respira dentro de mi
F#m
solo di la verdad
A E
la vida te lo dira

F#m
Un dia encontramos
A E
la formula de amarnos
F#m
y nos juramos
A E
que esto no iba a terminar.


OUTRO:

E A E E
e----------------------------------------------
B----------------------------------------------
G-1---2--2s4-2----4--4h6-4---1-1---0h1----0h1--
D--------------------------------------2------2 (2X)
A----------------------------------------------
E----------------------------------------------

Dudas y comentarios porfavor mandemelo a mi correo. [email protected]
Saludos desde Merida, Yucatan ;D

////////////////// ¿Te Animas? Sube una canción a este sitio. //////////////////

ACORDES PARA GUITARRA

PIANO UKELELE
E
A
F#m
B
C


COMENTARIOS

Aún no hay comentarios,

¡escribe el primero!

Escribe una pregunta, duda o comentario sobre esta canción, te responderemos a la brevedad.

Las canciones más tocadas de Plastiko

Toca una Canción al Azar de Plastiko
E
A
F#m
B
C

10.13


Nuestro servidor se demoró 0.12 segundos en generar esta página. Eso fue realmente muy rápido!