Con tu cuerpo el huracán (Acordes)

Prehistöricos

Subida por PianistaYolla

Compartir


Imprimir FAQ
+A
-A

Texto

Desplazamiento

Transportador

Color de Fondo

Archivos

-A
+A
intro: D F#m G D D/C#

E--10-9-7------------10-9-7--------------
B---------10-7-10-----------10-7---------
G--------------------------------9-------
D----------------------------------------
A----------------------------------------
E----------------------------------------

E--10-9-7-----------------7-------------------
B---------10-7-10---10-10---10-7---7-10-------
G--------------------------------9------------
D---------------------------------------------
A---------------------------------------------
E---------------------------------------------

D                           F#m
Si se acaba el sol en tu planeta
              G                 D   D/C#
por que este mundo no te gusta más.
       D                    F#m
No tendrán sentido tantas muertes
G                            D
no podría evitar que algo de ti (algo de ti)
   D/C#
conmigo moriría. (conmigo moriría)

G D G D

D                           F#m
¿Estarás tú a mi lado esta noche?
        G                        D    D/C#
¿Detendrás con tu cuerpo el huracán?
       D                  F#m
Ya no tengo miedo de la muerte
         G                  D    D/C#
y he perdido algo en que creer
         D                        F#m
y ahora sé que este es mi último día
      G                      D
pero nada está perdido si estás tú aquí
      D/C#
si estás aquí conmigo

G D

       G                 D
Ya no tengo miedo de perderte,
       G                D
ya no tengo miedo de morir.


Video Clip de Con tu cuerpo el huracán


ACORDES PARA GUITARRA

PIANO UKELELE
D
F#m
G
D/C#


TOP 20: Las más tocadas de Prehistöricos


Acordes

Cerrar
D
F#m
G
D/C#

04.35

x

74