Distintos (Acordes)

Prehistöricos

Subida por PASSIOn

Compartir


Imprimir FAQ
+A
-A

Texto

Desplazamiento

Transportador

Color de Fondo

Archivos

-A
+A
*Acordes sacados de la sesion Luminosa

Esta es mi primera Tablatura asique si tienen
alguna duda o sugerencia escribirme a mi correo ...gracias (:

[INTRO]

e---------------------------------0--------0-----
b---------5----------5----------0---0----0--0----
g-------4---4------4--4------3-------3--3-----3--
d-----6-------6--6------6--4-----------4---------
a--7------------7--------------------------------
e------------------------------------------------

e------0---------0------------------------------
b----0--0------0--0----------0---------0--------
g--1------1--1------1-------3-3------3---3------   X2
d-2----------2--------2---4----4---4------4-----
a-----------------------6--------6--------------
e-----------------------------------------------


[REFRAN]

Daria lo que fuera.....
e-----------------------------------------------
b----------------------------0-----------0------
g-------4---------4--------3---3--------3--3----
d-----6--6------6--6-----4----- 4-----4------4--
a---6------6--6------6--------------------------
e-4----------4----------2----------2------------

e-------------------------------------------------
b----0---------0---------------0-----------0-------
g---1--1------1--1-----------3---3-------3--3-----  x4
d--2-----2---2------2-------4-------4---4------4---
a-2--------2----------2---6-----------6----------6--
e---------------------------------------------------

[CORO]

Distintos..............
e--x-x-x-x----x-x-x-x----0-0-0-0-----x-x-x-x--
b--x-x-x-x----x-x-x-x----0-0-0-0-----x-x-x-x--
g--4-4-4-4----3-3-3-3----1-1-1-1-----3-3-3-3--
d--6-6-6-6----4-4-4-4----2-2-2-2-----4-4-4-4--
a--6-6-6-6----4-4-4-4----2-2-2-2-----6-6-6-6--
e--4-4-4-4----2-2-2-2----0-0-0-0-----x-x-x-x--

Distintos.............

e---x-x-x-x----x-x-x-x----0-0-0-0-----x-x-x-x---
b---x-x-x-x----x-x-x-x----0-0-0-0-----x-x-x-x---
g---4-4-4-4----3-3-3-3----1-1-1-1-----3-3-3-3---
d---6-6-6-6----4-4-4-4----2-2-2-2-----4-4-4-4---
a---6-6-6-6----4-4-4-4----2-2-2-2-----6-6-6-6---
e---4-4-4-4----2-2-2-2----0-0-0-0-----x-x-x-x---


Intermedio
e--x-x-x-x---0-0-0-0----x-x-x-x---------------
b--2-2-2-2---0-0-0-0----2-2-2-2---------------
g--3-3-3-3---1-1-1-1----3-3-3-3---------------
d--4-4-4-4-- 2-2-2-2----4-4-4-4---------------
a--4-4-4-4---2-2-2-2----4-4-4-4---------------
e--x-x-x-x---0-0-0-0----x-x-x-x---------------

Uno miraba, donde...

e--x-x-x-x---x-x-x-x--x-x-x-x--0-0-0-0--x-x-x-x---
b--x-x-x-x---5-5-5-5--2-2-2-2--1-1-1-1--2-2-2-2--X2
g--3-3-3-3---4-4-4-4--3-3-3-3--1-1-1-1--3-3-3-3--
d--4-4-4-4---6-6-6-6--4-4-4-4--2-2-2-2--4-4-4-4--
a--6-6-6-6---7-7-7-7--4-4-4-4--2-2-2-2--4-4-4-4--
e--x-x-x-x---x-x-x-x--x-x-x-x--0-0-0-0--x-x-x-x--

e---x-x-x-x-----x-x-x-x--x-x-x-x-------
b---x-x-x-x----5-5-5-5---5-5-5-5-------
g --3-3-3-3----4-4-4-4---4-4-4-4-------
d --4-4-4-4----6-6-6-6---6-6-6-6-------
a --6-6-6-6----7-7-7-7---7-7-7-7------
e---x-x-x-x----x-x-x-x--x-x-x-x------

[CORO]
Distintos..............
e--x-x-x-x----x-x-x-x----0-0-0-0-----x-x-x-x--
b--x-x-x-x----x-x-x-x----0-0-0-0-----x-x-x-x--
g--4-4-4-4----3-3-3-3----1-1-1-1-----3-3-3-3--
d--6-6-6-6----4-4-4-4----2-2-2-2-----4-4-4-4--
a--6-6-6-6----4-4-4-4----2-2-2-2-----6-6-6-6--
e--4-4-4-4----2-2-2-2----0-0-0-0-----x-x-x-x--

Distintos.............

e---x-x-x-x----x-x-x-x----0-0-0-0-----x-x-x-x---
b---x-x-x-x----x-x-x-x----0-0-0-0-----x-x-x-x---
g---4-4-4-4----3-3-3-3----1-1-1-1-----3-3-3-3---
d---6-6-6-6----4-4-4-4----2-2-2-2-----4-4-4-4---
a---6-6-6-6----4-4-4-4----2-2-2-2-----6-6-6-6---
e---4-4-4-4----2-2-2-2----0-0-0-0-----x-x-x-x---


[INTRO]

e---------------------------------0--------0-----
b---------5----------5----------0---0----0--0----
g-------4---4------4--4------3-------3--3-----3--
d-----6-------6--6------6--4-----------4---------
a--7------------7--------------------------------
e------------------------------------------------

e------0---------0------------------------------
b----0--0------0--0----------0---------0--------
g--1------1--1------1-------3-3------3---3------
d-2----------2--------2---4----4---4------4-----
a-----------------------6--------6--------------
e-----------------------------------------------

[REFRAN]

Daria lo que fuera.....
e-----------------------------------------------
b----------------------------0-----------0------
g-------4---------4--------3---3--------3--3----
d-----6--6------6--6-----4----- 4-----4------4--
a---6------6--6------6--------------------------
e-4----------4----------2----------2------------

e-------------------------------------------------
b----0---------0---------------0-----------0-------
g---1--1------1--1-----------3---3-------3--3-----  x4
d--2-----2---2------2-------4-------4---4------4---
a-2--------2----------2---6-----------6----------6--
e---------------------------------------------------

final es  F#m  - B


Video Clip de Distintos


ACORDES PARA GUITARRA

PIANO UKELELE


TOP 20: Las más tocadas de Prehistöricos


Acordes

Cerrar

06.29

x

61