Fuego del misterio (Acordes)

Prehistöricos

Subida por KAteKing

Compartir


Imprimir FAQ
+A
-A

Texto

Desplazamiento

Transportador

Color de Fondo

Archivos

-A
+A
Otro aporte a este gran producto nacional (:
*Sugerencia:
- Poner capodastro o cejillo en el primer traste (:
- Hacer acordes con cejillo (:

Intro:
(Este patron sigue la guitarra toda la musica)

    G
e------3-3-------3-3-----3-3----3-3-
b----3---------3--------3------3----
g--4---------4--------4-------4----- ________
d-----------------------------------         |
a-----------------------------------         |
e--3---------3--------3-------3-----         |  X2
                                       |
   C                                   |
e----0-2-3----0-2-3----0-2-3---0-2-3-        |
b--1--------1--------1-------1-------________|
g------------------------------------
d------------------------------------
a--3--------3--------3-------3-------
e------------------------------------

   Am
e-----5---------5------5----5--
b----5--------5-------5----5---
g---5-------5--------5----5----______
d--7-------7--------7-----7----      |
a------------------------------      |
e--5-------5--------5-----5----      |
                                     | X2
   Bm                                |
e------7------7------7------7--      |
b-----7------7------7------7---      |
g----7------7------7------7----______|
d--9------9------9------9------
a------------------------------
e--7------7------7------7------

G
En todos los países
                    C
vive gente tan diferente
G
hablan de lo mismo
                      C
pero piensan tan diferente
Am                      Bm
sus bailes son un misterio
Am                               Bm
para quien vive en otro hemisferio


G
Si todos nos juntáramos un día
                    C
al rededor de un fuego
G                                              C
podríamos sentirnos atraídos por el mismo misterio
Am                        Bm
millones y millones de eras
Am                     Bm
descifrando lo que no era

*Mismo acordes, mismo Patron (:


Video Clip de Fuego del misterio


ACORDES PARA GUITARRA

PIANO UKELELE
G
C
Am
Bm


TOP 20: Las más tocadas de Prehistöricos


Acordes

Cerrar
G
C
Am
Bm

05.37

x

73