Compartir


Imprimir FAQ
+A
-A

Texto

Desplazamiento

Transportador

Color de Fondo

Archivos

-A
+A
Tabbed By : Marc Weersink
e-mail: *

Tuning: EADG

Repeat these one after another until the next section.

G|-----------------------------------------------------------|
D|-------------------12121212-12-11-9------------------------|
A|-------7-9-10-9---------------------12---------------------|
E|-7777------------------------------------------------------|

G|-----------------------------------------------------------|
D|-----------------------------------------------------------|
A|-------7-9-10-9---101010-10-9-7----------------------------|
E|-7777----------------------------10------------------------|

Play around with these two variations.
G|-----------------------------------------------------------|
D|-----------------------------------------------------------|
A|-----------------7~----7-9-10~-----------------------------|
E|-/10-777--7-9-10----10-------------------------------------|

G|-----------------------------------------------------------|
D|-----------------------------------------------------------|
A|-----------------7~----77-9~-------------------------------|
E|-/10-777--7-9-10----10-------------------------------------|

G|-----------------------------------------------------------|
D|-----------------------------------------------------------|
A|---------9-7--/9------/10----------------------------------|
E|-10-77-7---------777-----999---(7)-(9)---------------------|

Play this for the rest of the song.
G|-----------------------------------------------------------|
D|-------------------12121212-12-11-9------------------------|
A|-------7-9-10-9---------------------12---------------------|
E|-7777------------------------------------------------------|

G|-----------------------------------------------------------|
D|-----------------------------------------------------------|
A|-------7-9-10-9---101010-10-9-7----------------------------|
E|-7777----------------------------10------------------------|

Video Clip de Kennedy


ACORDES PARA GUITARRA

PIANO UKELELE


TOP 20: Las más tocadas de Ratatat


Toca una Canción al Azar de Ratatat

Acordes

Cerrar

10.04

x

62