Compartir


Imprimir FAQ
+A
-A

Texto

Desplazamiento

Transportador

Color de Fondo

Archivos

-A
+A
Tabbed By : Marc Weersink
e-mail: *

Tuning: EADG

These are the variations of the bass line.   (11's not 1's)

G|--------------------------6--------------------------------|
D|-----------------------------------------------------------|
A|-8-8?6h8--------6-6-6-4----4/8-8-8-6h8?6h8-8-8/11-1111-----|
E|----------6h8--8-------------------------------------------|

G|---------------------------6-------------------------------|
D|-----------------------------------------------------------|
A|--8-8?6h8--------6-6-6-4----4/8-8-8-6h8?6h8-8-8------------|
E|-----------6h8--8-----------------------------------6-6----|

G|--------------------------6--------------------------------|
D|-----------------------------------------------------------|
A|-8-8?6h8--------6-6-6-4----4/8-8-8-6h8?6h8-8-8/11-1111-----|
E|----------6h8--8-------------------------------------------|

G|---------------------------6-------------------------------|
D|-----------------------------------------------------------|
A|--8-8?6h8--------6-6-6-4----4/8-8-8-6h8?6h8~---------------|
E|-----------6h8--8------------------------------------------|

I?m not 100% on this part, but correct me if you know it.

G|-----------------------------------------------------------|
D|-----------------------------------------------------------|
A|-------------6-6-6-6-66-------------8----------------------|
E|-6-6-6-6-66--------------9-9-9-9-99------4-44--------------|

Play this for the rest of the song.

G|-----------------------------------------------------------|
D|-----------------------------------------------------------|
A|----------------------/8-88~--/8-88~-----------------------|
E|--/6-66~----/9-99~-----------------------------------------|

Video Clip de Wildcat


ACORDES PARA GUITARRA

PIANO UKELELE


TOP 20: Las más tocadas de Ratatat


Toca una Canción al Azar de Ratatat

Acordes

Cerrar

01.14

x

62