Cariñito
Rodolfo Aicardi
Acordes

Subida por Martha



Otras Versiones
Ver. 2

ENTRENA TU OÍDO MUSICAL CON ESTE JUEGO. ¿QUÉ ACORDE ES?. CLIC AQUÍ PARA JUGAR

Cambiar Cifrado
Americano Latino

Cambiar Tonalidad
-1 +1

Partir Pantalla Imprimir FAQ

Ver solo la LETRA

+A
-A
LETRA CON ACORDES
NTRO
e|--5-0-5--3-5-8-0-8--8-0-8--8-10-8-5-0-5-------|
B|----------------------------------------------|
G|----------------------------------------------|
D|----------------------------------------------|
A|----------------------------------------------|
E|----------------------------------------------|

e|--5-0-5--3-5-8-0-8--8-0-8--8-10-8-5-0-5-------|
B|----------------------------------------------|
G|----------------------------------------------|
D|----------------------------------------------|
A|----------------------------------------------|
E|----------------------------------------------|

e|-------12-12-12-10-8-88/10-88/10-88/10--------|
B|----------------------------------------------|
G|----------------------------------------------|
D|----------------------------------------------| x3
A|----------------------------------------------|
E|----------------------------------------------|

e|------8-10-8-5-7/8-7/8-7/8--------------------|
B|----------------------------------------------|
G|----------------------------------------------|
D|----------------------------------------------|x1
A|----------------------------------------------|
E|----------------------------------------------|


LAm DO MI
lloro por quererte, por amrte y por besarte
LAm DO MI
sufro por quererte, por amrte y por besarte
FA DO FA DO
hay... cariño hay... mi vida
MI LAm
nunca... pero nunca
DO DO LAm
me abandones cariñito


LAm DO MI
lloro por quererte, por amrte y por besarte
LAm DO MI
sufro por quererte, por amrte y por besarte
FA DO FA DO
hay... cariño hay... mi vida
MI LAm
nunca... pero nunca
DO DO LAm
me abandones cariñito


ACORDES PARA GUITARRA

PIANO UKELELE
Am
C
E
F


COMENTARIOS

Aún no hay comentarios,

¡escribe el primero!

Para hacer una pregunta o dejar un comentario sobre esta canción, debes estar LOGUEADO

Las canciones más tocadas de Rodolfo Aicardi

Toca una Canción al Azar de Rodolfo Aicardi
Am
C
E
F

Nuestro servidor se demoró 0.04 segundos en generar esta página. Eso fue realmente muy rápido!