Volver
Rodolfo Aicardi
Acordes

Subida por rardFaila



Otras Versiones

ENTRENA TU OÍDO MUSICAL CON ESTE JUEGO. ¿QUÉ ACORDE ES?. CLIC AQUÍ PARA JUGAR

Cambiar Cifrado
Americano Latino

Cambiar Tonalidad
-1 +1

Partir Pantalla Imprimir FAQ

Ver solo la LETRA

+A
-A
LETRA CON ACORDES
la canción esta por la#

introduccion:

RE#m SOL# DO# FA# RE#m FA LA#m
e---------------------------------------------------------------
b---------------------------------------------------------------
g-----------------------------------------------5-5-5-2--0-2-3--
d-3-4-----4-4-6--4-4-3-3-1-3--3-3-4--3-3-1-1-0-1----------------
a---------------------------------------------------------------
E---------------------------------------------------------------

LA#m
Volver,
RE#m
con las alas marchitas de volar,
FA
volver,
LA#m
con los ojos cansados de llorar,
RE#m SOL#
sentir,
DO#
la nostalgia de tu amor que lo espero,
FA# RE#m
la tristeza del recuerdo que quedo,
FA LA#m LA#
en mi joven corazon,
tendre,
que vivir en esta vida sin tu amor,
fuiste arena que en mis manos se escurrio,
y que el viento se llevo...

SOL# (riif 1)
pensar,
DO#
que tuve tantas ansias de querer,
FA (termina riif 1)
y que quise tanto mundo recorrer,
LA#m
en mi loca juventud,
hoy se,
que talves no vuelva ya otro querer,
que quisas tu fuiste la ultima mujer,

FA LA#m (riif 2)
a quien pude yo querer

FA LA#m
a quien pude yo querer

riff1:

SOL# DO# FA#
e--------4-----------------------------------1----------
b----4-7---7-6-7--------4-6-7-6-4-6------1-4---4-3-4----
g---5-----------------6-----------------2---------------
d--6----------------6------------------3----------------
a-------------------------------------------------------
E-------------------------------------------------------

solo:

e---------------------------------------------
b---------------------------------------------
g-6-5-3-5--5-6-8-10-6-5-3-5---6-5-3-----------
d---------------------------3-----------------
a---------------------------------------------
E---------------------------------------------

riff2 (y ultimo)


e---------
b-2-1-----
g-----2-3-
d---------
a---------
E---------

cualquier duda sugerencia o comentario pueden escribirme
al siguiente correo electronico: [email protected]


ACORDES PARA GUITARRA

PIANO UKELELE
D#m
G#
C#
F#
F
A#m
A#


COMENTARIOS

Aún no hay comentarios,

¡escribe el primero!

Para hacer una pregunta o dejar un comentario sobre esta canción, debes estar LOGUEADO

Las canciones más tocadas de Rodolfo Aicardi

Toca una Canción al Azar de Rodolfo Aicardi
D#m
G#
C#
F#
F
A#m
A#

Nuestro servidor se demoró 0.04 segundos en generar esta página. Eso fue realmente muy rápido!