Aint Complaining
Status Quo
Acordes

Subida por Gasper


Más Versiones
Ver. 2

Cambiar Cifrado
Americano Latino

Cambiar Tonalidad
-1 +1

Partir Pantalla Imprimir FAQ

+A
-A
Ain't Complaining

There's nothing left, there's nothing right
There's nothing left, there's nothing right
There's nothing left, right left right
Up down up down up down up down

Guitar opening:
G
E|-------------------------------------------------|
H|-------------------------------------------------|
G|-----0-2b4-----0-2b4-----0-2b4r2-0---------------|
D|-0-2-------0-2-------0-2-----------2b4r2-0-------|
A|-------------------------------------------------|
E|-------------------------------------------5b6-3-|

C G
E|-------------------------------------------------|
H|-------------------------------------------------|
G|-----0-2b4-----0-2b4-----0-2b4r2-0---------------|
D|-0-2-------0-2-------0-2-----------2b4r2-0-------|
A|-------------------------------------------------|
E|-------------------------------------------5b6-3-|

D G
E|-------------------------------------------------|
H|-------------------------------------------------|
G|-----0-2b4-----0-2b4-----0-2b4r2-0---------------|
D|-0-2-------0-2-------0-2-----------2b4r2-0-------|
A|-------------------------------------------------|
E|-------------------------------------------5b6-3-|



All right all right
verse:
G
You wind me up, you bring me down

Your reputation is all over the town
Am
So long as you come home to me
Bb-Am G
I ain't complaining
G
You fool around, we scream and fight

The way you're treating me, you know it ain't right
Am
But when you're making out with me
Bb-Am G
I ain't complaining

Chorus:
C
It ain't no use, you playing it loose
G
And thinking it don't matter to me
C
It ain't fair at all
D
You only have to call my name
G
and I'll come running to you

(Guitar opening once more)

All right all right
verse:
You're out all night, you sleep all day
When I get home you're going out to play
Oh, woman give me some time and everything's fine
I ain't complaining

verse:
You just don't care, we're in a mess
And the company you keep ain't the best
But when you're lying there with me
I ain't complaining

Chorus:
It ain't no use, you playing it loose
And thinking it don't matter to me
It ain't fair at all
You only have to call my name
And I'll come running to you

Bridge:
G
But when the chips are down
C
A man can only take so much fooling around
G D
And if you don't come home to me
G
I'll be complaining

Guitar solo:

Eb/Bb Bb
E|--------------------------------------------------------|
H|-------------16-16-18-18b20r18-16--------18-------------|
G|-17b19r17-15-----------------------17b19----17b19r17-15-|
D|--------------------------------------------------------|
A|--------------------------------------------------------|
E|--------------------------------------------------------|

F/C C
E|-------------------------------------------------------------|
H|-------15-16-18-18-20-20b22r20-18-18-18-18-17-18-17-16-15----|
G|-15-17----------------------------------------------------17-|
D|-------------------------------------------------------------|
A|-------------------------------------------------------------|
E|-------------------------------------------------------------|

Eb/Bb C
E|----------------18b20r18-15-18b20r18-15--13-----------------|
H|-16-18-18b20r16---------------------------------------------|
G|--------------------------------------------15-15-15b17r15--|
D|------------------------------------------------------------|
A|------------------------------------------------------------|
E|------------------------------------------------------------|

D
E|---------------------------------------------------|
H|-----15-15----15-15-17-15-----15-15---15-15-17-15--|
G|-/16-------16-------------/16-------16-------------|
D|---------------------------------------------------|
A|---------------------------------------------------|
E|---------------------------------------------------|

G (There's nothing etc..)
E|-18b20r18-15----------------|
H|-------------17-15----------|
G|-------------------16-14-12-|
D|----------------------------|
A|----------------------------|
E|----------------------------|
D - C# - C - H - Bb - A- G# -G

ACORDES PARA GUITARRA

PIANO UKELELE


COMENTARIOS

Aún no hay comentarios,

¡escribe el primero!

Escribe una pregunta, duda o comentario sobre esta canción, te responderemos a la brevedad.

Las más tocadas de Status Quo

Toca una Canción al Azar de Status Quo