In The Army Now
Status Quo
Acordes

Subida por RUUL
Álbum: In the Army Now ( 1986)


Más Versiones

Cambiar Cifrado
Americano Latino

Cambiar Tonalidad
-1 +1

Partir Pantalla Imprimir FAQ

+A
-A


Ver solo la LETRA
Intro: Dm  Am  Dm  C
Am Dm C )
E|------------5---------|------------------|-------------10----8--|
B|------6----------8----|------------------|------10--8-----------|
G|---------7------------|------------------|----------------------|
D|----------------------|------------------|----------------------|
A|----------------------|------------------|----------------------|
E|----------------------|------------------|----------------------|


Dm
A vacation in the foreign land

Uncle Sam does the best he can
Gm
You're in the army now
Dm
Oh, oh you're in the army - now

Dm
Now you remember what the draft man said

Nothing to do all day but stay in bed
Gm
You're in the army now
Dm
Oh, oh you're in the army - now
E|---------------|
B|---------------|
G|---------------|
D|--0h2p0-----0--|
A|---------3-----|
E|---------------|


Dm
You'll be a hero of the neighbourhood

Nobody knows that you left for good
Gm
You're in the army now
Am Dm
Oh, oh you're in the army - now

Dm
Smiling faces on the way to 'Nam E|--10---10----10~~~~~~--|

But once you get there no one gives a damn
Gm
You're in the army now
Am Dm
Oh, oh you're in the army - now

( Dm Am Dm C )

Dm
Hand grenades flying over your head

Em
The sun's flying over your head

If you wanna survive you're out of bet
Am
You're in the army now
Bm Em
Oh, oh you're in the army - now

Em
Shots ring out in the dead of night

The sergeant calls : "Stand up and fight!"
Am
You're in the army now
Bm Em
Oh, oh you're in the army - now

Em
You've got your orders to shoot on sight

your finger's on the trigger but it don't seem right
Am
You're in the army now
Bm Em
Oh, oh you're in the army - now
Solo:
E|----------15--19--17h15p17----19~~~~--|------------15--19--17h15p17--|--------------|
B|------17------------------------------|--------17--------------------|--------------|
G|--16----------------------------------|----16------------------------|--------------|
D|--------------------------------------|------------------------------|--------------|
A|--------------------------------------|------------------------------|------14--14--|
E|--------------------------------------|------------------------------|--------------|


Em
Night is falling and you just can't see

Is this illusion or reality
Am
You're in the army now
Bm Em
Oh, oh you're in the army - now

Am
You're in the army now
Bm Em
Oh, oh you're in the army - now
Enquanto toca a parte acima:
E|---------------------------------------|
B|--------------------------------12~~~--|
G|--12--11--12--14--12--11--12-----------|
D|---------------------------------------|
A|---------------------------------------|
E|---------------------------------------|

ACORDES PARA GUITARRA

PIANO UKELELE
Dm
Am
C
Gm
Em
Bm


COMENTARIOS

Aún no hay comentarios,

¡escribe el primero!

Escribe una pregunta, duda o comentario sobre esta canción, te responderemos a la brevedad.

Las más tocadas de Status Quo

Toca una Canción al Azar de Status Quo
Dm
Am
C
Gm
Em
Bm