Mess of The Blues (Acordes)

Status Quo

Subida por Fernanda

Compartir


Cambiar Cifrado
Americano Latino

Cambiar Tonalidad
-1 +1
Imprimir FAQ
+A
-A

Texto

Desplazamiento

Transportador

Color de Fondo

Archivos

TONALIDAD, TAMAÑO, CIFRADO, SCROL.

Nos renovamos: Ahora puedes cambiar TODO haciendo clic en ICONO de la Guitarra () que aparece en la parte inferior de esta página.


LETRA CON ACORDES

INTRO        
           A         G     D            A
E|-555-7-8-8b9-8b9-5-7-5-------------------------7-5-|
B|-----------------------5h7--5h7--------------5-----|
G|--------------------------------7-5-4----5b6-------|
D|--------------------------------------7------------|
A|---------------------------------------------------|
E|---------------------------------------------------|


verse:
        D
I just got your letter baby

Too bad you can't come home
    G
I swear I'm goin' crazy

Sittin' here all alone
            A
Since your gone
   G              D
I got a mess of blues


chorus:
  G
Whoops there goes a teardrop
 D
Rollin' down my face
G
If you cry when you're in love
    A
It sure ain't no disgrace

verse:
I ain't slept a week since Sunday
I can't eat a thing all day
Every day is just blue Monday
Since you've been away
Since your gone
I got a mess of blues

chorus:
Whoops there goes a teardrop
Rollin' down my face
If you cry when you're in love
It sure ain't no disgrace

verse:
I gotta get myself together
Before I lose my mind
I'm gonna catch the next train goin'
And leave my blues behind
Since your gone
I got a mess of blues


 Guitar solo:
   G                                D
E|---------------------------------------------------|
B|-5b6r5-3-5b6-5-3-5b6-5-3-5b6-5-3-------------------|
G|----------------------------------4b5r4-2-4b5-4-2--|
D|---------------------------------------------------|
A|---------------------------------------------------|
E|---------------------------------------------------|

                         G
E|---------------------------------------------------|
B|-4b5-4b5-4b5-4-2-------5b6r5-3-5b6-5-3-5b6-5-3-7b8-|
G|-----------------3-0-------------------------------|
D|---------------------------------------------------|
A|---------------------------------------------------|
E|---------------------------------------------------|

   A
E|---------5-7-8-8b9---|
B|-----5-7-------------|
G|-5b6-----------------|
D|---------------------|
A|---------------------|
E|---------------------|

verse:
I gotta get myself together
Before I lose my mind
I'm gonna catch the next train goin'
And leave my blues behind
Since your gone
I got a mess of blues
Since your gone
I got a mess of blues
Since your gone
I got a mess of blues

fade with playing the written guitar solo
--------------------------------------------
Pictures of Matchstick Men

    This is one of the coolest songs ever written. If anybody else knows how
to play any of ther rest of it, please tab it and upload it to OLGA. I
especially want to know how to play the wah part during the verses. All this tab
is is the intro. I was screwing around, trying to to come up with what they
play during the verse, and I know there's a D chord and I think a G chord in
there, if that helps anybody. They play this in other parts of the song, too
though. Where it says "Wah", use the wah pedal to get a more trebly sound.


  Distorted
||---10--10--10--10--10--10--8--8--8--12--12--12--12--12--10--10--10--10--------
||------------------------------------------------------------------------------
||------------------------------------------------------------------------------
||------------------------------------------------------------------------------
||------------------------------------------------------------------------------
||------------------------------------------------------------------------------
                                                                               

                           Wah                                    Wah
8--9--10--10--10--10--10--10--10--10-----8--9--10--10--10--10--10--10--10--10--
-------------------------------------------------------------------------------
-------------------------------------------------------------------------------
-------------------------------------------------------------------------------
-------------------------------------------------------------------------------
-------------------------------------------------------------------------------
                                                                               

                                                                               
------10--10--10--10--10--10--8--8--8--12--12--12--12--12--10--10--10--10------
-------------------------------------------------------------------------------
-------------------------------------------------------------------------------
-------------------------------------------------------------------------------
-------------------------------------------------------------------------------
-------------------------------------------------------------------------------
                                                                               

                            Wah                                     Wah
---8--9--10--10--10--10--10--10--10--10-----8--9--10--10--10--10--10--10-------
-------------------------------------------------------------------------------
-------------------------------------------------------------------------------
-------------------------------------------------------------------------------
-------------------------------------------------------------------------------
-------------------------------------------------------------------------------
                                                                               

                                                                               
10--10-----||
-----------||
-----------||
-----------||
-----------||
-----------||



===============================================================================
==                           TABLATURE EXPLANATION                           ==
===============================================================================

----------                            ----------
----5h8--- Hammeron                   ----(8)--- Ghost Note
----------                            ----------
----5p8--- Pulloff                    ----------

----------                            ----------
----5/8--- Slide Up                   -----x---- Dead Note
----------                            ----------
----58--- Slide Down                 ----------

----------                            ||------|| Repeat Start & End
----5~~~-- Vibrato                    ||*----*||
----------                            ||*----*||
----------                            ||------||

Rhythm:
  w = whole note            W = dotted whole
  h = half note             H = dotted half
  q = quarter note          Q = dotted quarter
  e = eighth note           E = dotted eighth
  s = sixteenth note        S = dotted sixteenth
  ^ = triplet   

Video Clip de Mess of The Blues


ACORDES PARA GUITARRA

PIANO UKELELE
A
G
D


TOP 20: Las más tocadas de Status Quo


Toca una Canción al Azar de Status Quo

Acordes

Cerrar
A
G
D

14.11

x

261