Nanana

Status Quo

Acordes

Dog of Two Head (1971)
Subida por Cledezma79


Más Versiones
Ver. 2

Cambiar Cifrado
Americano Latino

Cambiar Tonalidad
-1 +1

Partir Pantalla Imprimir FAQ

+A
-A


Ver solo la LETRA
	  NANANA 

status Quo


hide this tabHide tabE|---5--5--5--5--5--5--5--5--3--3--3--3--3--3--3--3|
H|--3--3--3--3--3--3--3--3--3--3--3--3--3--3--3--3-|
G|-2--2--2--2--2--2--2--2--2--2--2--2--2--2--2--2--|
D|-------------------------------------------------|
A|-------------------------------------------------|
E|-------------------------------------------------|

E|---0--0--0--0--1--1--1--1--1--1--1--1--1--1--1--1|
H|--3--3--3--3--3--3--3--3--3--3--3--3--3--3--3--3-|
G|-2--2--2--2--------------------------------------|
D|-------------3--3--3--3--0--0--0--0--0--0--0--0--|
A|-------------------------------------------------|
E|-------------------------------------------------|tab

Then D-chord

Nanana
(Rossi/Young)

verse:
D A D
Writing songs that I think sound so strange
A D
Writing words that I feel I should change
G A
It's all right if they sound just like other songs
G A
My guitar strums along just the same
D A D
If this song's underlined with my name

tabchorus G A D
Nanana na nana na na na na na na
G A D
Nanana na nana na na na na na
G A D
Nanana na nana na na na na na na
G A D
Nanana na nana na na na na natab


verse:
Playing games that I think may be wrong
Making sounds that can go on and on
It's all right if you stay right on to the end
If my song could've been just a bore
Then I hope you may come back for more

chorus:
Nanana na nana na na na na na na
Nanana na nana na na na na na
Nanana na nana na na na na na na
Nanana na nana na na na na na
Nanana na nana na na na na na na
Nanana na nana na na na na na


NUEVO FORO DE MÚSICA

¿Tienes alguna duda, consulta, pregunta, consejo o algo para compartir sobre esta canción?

¡Puedes abrir un hilo en el FORO para que la comunidad te ayude! Hacer una pregunta

ACORDES PARA GUITARRA

PIANO UKELELE
D
A
G


Las más tocadas de Status Quo

D
A
G