Whatever you want (Acordes)

Status Quo

Full Álbum: Whatever You Want (1979)
Subida por elkrak

Compartir


Cambiar Cifrado
Americano Latino

Cambiar Tonalidad
-1 +1
Imprimir FAQ
+A
-A

Texto

Desplazamiento

Transportador

Color de Fondo

Archivos

TONALIDAD, TAMAÑO, CIFRADO, SCROL.

Nos renovamos: Ahora puedes cambiar TODO haciendo clic en ICONO de la Guitarra () que aparece en la parte inferior de esta página.


LETRA CON ACORDES

Intro: Parte 1:
E|---3-----3-----------3-------2-----2-----3-----2-----|
B|-1---1-----1-0h1p0-----0-------3-----3-----3-----3---|
G|-------0-----------0-----0-------2-----2-----2-------|
D|---------------------------0-------------------------|
A|-----------------------------------------------------|
D|-----------------------------------------------------|

E|---3-----3-----------3-------2-----2-----3-----2-----|
B|-1---1-----1-0h1p0-----0-------3-----3-----3-----3---|
G|-------0-----------0-----0-------2-----2-----2-------|
D|---------------------------0-------------------------|
A|-----------------------------------------------------|
D|-----------------------------------------------------|

E|------------------------------------2------5---------|
B|----3------3-----3-----3------------3------6---------|
G|------0------0-----0-----0----------2------5---------|
D|--------2------------2--------------0----------------|
A|--3------------2-------------------------------------|
D|---------------------------3-2-0-0-------------------|

Parte 2:
E|-----------------------------------------------------|
B|-----------------------------------------------------|
G|-----------0h5-----------0h5-----------0h5-------0h5-|
D|-----------0h5-----------0h5-----------0h5-------0h5-|
A|-----------------------------------------------------|
D|-0-00-00-00---0-00-00-00---0-00-00-00---0-00-00-00---|

E|---------------------------------------------------|
B|---------------------------------------------------|
G|-----------0h5----------0h5----------0h5-----------|
D|-----------0h5----------0h5----------0h5-----------|
A|---------------------------------------------------|
D|-0-00-00-00---0-00-00-00---0-00-00-00---0-00-00-00-|

Parte 3:
E|----------------------------------------------------------------------------------|
B|-8-8-7-7-7----7---7--8-8-7-7-7----7---7--8-8-7-7-7--8-8-7-7-7--8-8-7-7-7----7---7-|
G|-7-7-7-7-7----7---7--7-7-7-7-7----7---7--7-7-7-7-7--7-7-7-7-7--7-7-7-7-7----7---7-|
D|-9-9-7-7-7--7-7-7-7--9-9-7-7-7--7-7-7-7--9-9-7-7-7--9-9-7-7-7--7-7-7-7-7--7-7-7-7-|
A|----------------------------------------------------------------------------------|
D|----------------------------------------------------------------------------------|

E|----------------------------------------------------------------------------------|
B|-8-8-7-7-2---2---2--8-8-7-7-10--8-8-7-7-7--8-8-7-7-7--8-8-7-7-7----7---7----------|
G|-7-7-7-7-2---2---2--7-7-7-7-9---7-7-7-7-7--7-7-7-7-7--7-7-7-7-7----7---7----------|
D|-9-9-7-7-2---2---2--9-9-7-7-11--9-9-7-7-7--9-9-7-7-7--9-9-7-7-7--7-7-7-7----------|
A|---------0-0-0-0-0----------------------------------------------------------------|
D|----------------------------------------------------------------------------------|
E|----------------------------------------------------------------------------------|
B|-8-8-7-7-7----7---7--8-8-7-7-7----7---7--8-8-7-7-7--8-8-7-7-7--8-8-7-7-7----7---7-|
G|-7-7-7-7-7----7---7--7-7-7-7-7----7---7--7-7-7-7-7--7-7-7-7-7--7-7-7-7-7----7---7-|
D|-9-9-7-7-7--7-7-7-7--9-9-7-7-7--7-7-7-7--9-9-7-7-7--9-9-7-7-7--7-7-7-7-7--7-7-7-7-|
A|----------------------------------------------------------------------------------|
D|----------------------------------------------------------------------------------|

E|----------------------------------------------------------------------------------|
B|-8-8-7-7-2--------8-8-7-7-10--8-8-7-7-7----7---7--8-8-7-7-7----7---7--------------|
G|-7-7-7-7-2-----2--7-7-7-7-9---7-7-7-7-7----7---7--7-7-7-7-7----7---7--------------|
D|-9-9-7-7-2-5-4-2--9-9-7-7-11--9-9-7-7-7--7-7-7-7--9-9-7-7-7--7-7-7-7--------------|
A|---------0------------------------------------------------------------------------|
D|----------------------------------------------------------------------------------|

Verso 1:
Tab do verso:
E|-------------------------------------------------------------------------------------
B|-------------------------------------------------------------------------------------
G|-0h2-4-2-4--0h2-4-2-4--0h2-4-2-4--0h2-4---------------------------0h2-4-2-4--0h2-4-2-
D|-0---0-0-0--0---0-0-0--0---0-0-0--0---0-----0h2-5-4-2--0h2-5-4-2--0---0-0-0--0---0-0-
A|--------------------------------------------0---0-0-0--0---0-0-0---------------------
D|----------------------------------------4-5------------------------------------------
              D5
Whatever you want
Whatever you like
Whatever you say
You pay your money
You take your choise
              A5
Whatever you need
Whatever you use
              D5
Whatever you win
Whatever you loose

Verso 2:
Tab do verso:
E|-------------------------------------------------------------------------------------
B|-------------------------------------------------------------------------------------
G|-0h2-4-2-4--0h2-4-2-4--0h2-4-2-4--0h2-4---------------------------0h2-4-2-4--0h2-4-2-
D|-0---0-0-0--0---0-0-0--0---0-0-0--0---0-----0h2-5-4-2--0h2-5-4-2--0---0-0-0--0---0-0-
A|--------------------------------------------0---0-0-0--0---0-0-0---------------------
D|----------------------------------------4-5------------------------------------------
               D5
You´re showing of
You´re showing out
You look for trouble
Turn around, give me a shout
          A5
I take it all
You squeeze me dry
         D5
And now today
You couldn´t even say goodbye

Refrão:
F5                C5
I could take you home
                  D5      F5 - D5
On the midnight train again
F5              C5         B5      E5 - A5
I could make an offer you can´t refuse

tab do refrão:
E|------13--8---------10--------8---------10-----------|
B|-----13---8---------10--------10--------10-----------|
G|----14----9---------11--------10--------11-----------|
D|---15-----10--------12--------10--------12-----------|
A|--15------10--12-12-12--12-12-8---12-12-12--12-12-12-|
D|-15-------10--12-12-12--12-12-----12-12-12--12-12-12-|

E|------13-------------------------------------------|
B|-----13-----------------------------------/10-10-8-|
G|----14--------9-9-9-9-9-9-9-9-9-9-9-9-9---/9--9--9-|
D|---15----10-9-9-9-9-9-9-9-9-9-9-9-9-9-9-7----------|
A|--15-----10-9-7-7-7-7-7-7-7-7-7-7-7-7-7-7----------|
D|-15------10-9---------------------------7----------|

Repete o verso 1:

Guitar Solo:
     F
E|------------------------------------13----------13------------------------|
B|---------------------------------13----------13---------------------------|
G|------13-13-------13-13----15b17-------15b17-------15b17r15-13----13------|
D|-13h15------13h15-------15-------------------------------------15----(15)-|
A|--------------------------------------------------------------------------|
D|--------------------------------------------------------------------------|

                           G
E|---------------------------------15--------------|
B|------------------------------15----18p15--------|
G|------------------------17b19-------------17-15--|
D|-13-13-------13-13-------------------------------|
A|-------13h15-------15----------------------------|
D|-------------------------------------------------|

    C                        F
E|---------8-----------------------------------------------|
B|-------8---11p8------------------------------------10-13-|
G|-10b12----------10-8h9-------------------10--10-12-------|
D|-----------------------10----------10-12-----------------|
A|--------------------------8--8-/12-----------------------|
D|---------------------------------------------------------|

    E                      A
E|-13-12-10----------------------------------------|
B|----------13b15r13-12--15/15b17-15-15b17---------|
G|-------------------------------------------------|
D|-------------------------------------------------|
A|-------------------------------------------------|
D|-------------------------------------------------|

Verso 3:
Tab do verso:
E|-------------------------------------------------------------------------------------
B|-------------------------------------------------------------------------------------
G|-0h2-4-2-4--0h2-4-2-4--0h2-4-2-4--0h2-4---------------------------0h2-4-2-4--0h2-4-2-
D|-0---0-0-0--0---0-0-0--0---0-0-0--0---0-----0h2-5-4-2--0h2-5-4-2--0---0-0-0--0---0-0-
A|--------------------------------------------0---0-0-0--0---0-0-0---------------------
D|----------------------------------------4-5------------------------------------------
               D5
You´re showing of
You´re showing out
You look for trouble
Turn around, give me a shout
          A5
I take it all
You squeeze me dry
         D5
And now today
You couldn´t even say goodbye

Refrão:
F5                C5
I could take you home
                  D5      F5 - D5
On the midnight train again
F5              C5         B5      E5 - A5
I could make an offer you can´t refuse

Verso final:
Tab do verso:
E|-------------------------------------------------------------------------------------
B|-------------------------------------------------------------------------------------
G|-0h2-4-2-4--0h2-4-2-4--0h2-4-2-4--0h2-4---------------------------0h2-4-2-4--0h2-4-2-
D|-0---0-0-0--0---0-0-0--0---0-0-0--0---0-----0h2-5-4-2--0h2-5-4-2--0---0-0-0--0---0-0-
A|--------------------------------------------0---0-0-0--0---0-0-0---------------------
D|----------------------------------------4-5------------------------------------------
              D5
Whatever you want
Whatever you like
Whatever you say
You pay your money
You take your choise
              A5
Whatever you need
Whatever you use


E|-----------|-----------|-----------|---------------
B|-8-8-7-7-7-|-6-6-5-5-5-|-1-1-0-0-0-|-2-2-2-2-2-2-2-
G|-7-7-7-7-7-|-5-5-5-5-5-|-0-0-0-0-0-|-2-2-2-2-2-2-2-
D|-9-9-7-7-7-|-7-7-5-5-5-|-2-2-0-0-0-|-2-2-2-2-2-2-2-
A|-----------|-----------|-----------|-0-0-0-0-0-0-0-
D|-----------|-----------|-----------|---------------
Whatever you win
Whatever you loose
              A5
Whatever you want

              G5
Whatever you want.....
E|----------------------------------------------------------------------------------|
B|-8-8-7-7-7----7---7--8-8-7-7-7----7---7--8-8-7-7-7--8-8-7-7-7--8-8-7-7-7----7---7-|
G|-7-7-7-7-7----7---7--7-7-7-7-7----7---7--7-7-7-7-7--7-7-7-7-7--7-7-7-7-7----7---7-|
D|-9-9-7-7-7--7-7-7-7--9-9-7-7-7--7-7-7-7--9-9-7-7-7--9-9-7-7-7--7-7-7-7-7--7-7-7-7-|
A|----------------------------------------------------------------------------------|
D|----------------------------------------------------------------------------------|

E|----------------------------------------------------------------------------------|
B|-8-8-7-7-2---2---2--8-8-7-7-10--8-8-7-7-7--8-8-7-7-7--8-8-7-7-7----7---7----------|
G|-7-7-7-7-2---2---2--7-7-7-7-9---7-7-7-7-7--7-7-7-7-7--7-7-7-7-7----7---7----------|
D|-9-9-7-7-2---2---2--9-9-7-7-11--9-9-7-7-7--9-9-7-7-7--9-9-7-7-7--7-7-7-7----------|
A|---------0-0-0-0-0----------------------------------------------------------------|
D|----------------------------------------------------------------------------------|

Video Clip de Whatever you want


ACORDES PARA GUITARRA

PIANO UKELELE
D5
A5
F5
C5
B5
E5
F
G
C
E
A
G5


TOP 20: Las más tocadas de Status Quo


Toca una Canción al Azar de Status Quo

Acordes

Cerrar
D5
A5
F5
C5
B5
E5
F
G
C
E
A
G5

10.52

x

351