Thank You For Sending Me An Angel
Talking Heads
Acordes

Subida por Roberto
Álbum: More Songs About Buildings and Food ( 1978)



Cambiar Cifrado
Americano Latino

Cambiar Tonalidad
-1 +1

Partir Pantalla Imprimir FAQ

+A
-A
Keep in mind that the below is tablature for how I would play the song.  This  tablature 
the song. If you don't agree with it, feel free to play around w/ it and see what
for you.



e--------------------|
B--------------------|
G----0-0-----0-0---0-|
D--------------------|
A--------------------|
E--3-3-3-3-3-----3---|


F C G
Oh, Oh, baby you can walk, you can talk just like me
You can walk, you can talk just like me.

You can look, tell me what you see.
You can look, you won't see nothing like me
if you look around the world.
Oh, baby you can walk, you can talk just like me.
With a little practive, you can walk like, talk just like me.
If that's what you wanna do.
Well, you can look, you'll walk in circles around me.
But first, I'll walk in circles 'round you.
But first, I'll walk around the world.

e--3-3------6-6-|
B--0-0--6h8-----|
G---------------|
D---------------|
A---------------|
E---------------|

In the background, a guitar is picking extremely fast. Kinda sounds like this:
e------------------------2/4--4/6--6/8--8/10--10/12--12/14--14/15-|
B--3-3-3-3-3-3-3-3-3-3-3------------------------------------------|
G-----------------------------------------------------------------|
D-----------------------------------------------------------------|
A-----------------------------------------------------------------|
E-----------------------------------------------------------------|

continue with same F-C-G progression


Tabbed by Dan Mooney 2006

ACORDES PARA GUITARRA

PIANO UKELELE


COMENTARIOS

Aún no hay comentarios,

¡escribe el primero!

Escribe una pregunta, duda o comentario sobre esta canción, te responderemos a la brevedad.

Las más tocadas de Talking Heads

Toca una Canción al Azar de Talking Heads