Uh-oh Love Comes To Town
Talking Heads
Acordes

Subida por Adriana


Más Versiones
Ver. 2

Cambiar Cifrado
Americano Latino

Cambiar Tonalidad
-1 +1

Partir Pantalla Imprimir FAQ

+A
-A


Ver solo la LETRA

Tabbed By : Gingerbeast
e-mail: G*


Tuning: Normal

Looks hard, but have a listen, get the tempo, and you should be fine!

G|-----------------------------------------------------------------------------|
D|------------------------------------------7----------------------------------|
A|---------------5------------6-------------------------5----------------------| X1
E|-----------------------------------------------------------------------------|

G|-----------------------------------------------------------------------------|
D|-------------------------------------------4--6-6-4--------------------------|
A|-----7------4-------7-7-4---4------4-7------------7-4------------------------| X6
E|---------------7------------7------7-----------------------------------------|

G|------------------------------------------------------------------------------|
D|-------7------------------9---------9-9-----5-7-------------------------------|
A|------------------------------------------5-7---------------------------------| X2
E|------------------------------------------------------------------------------|

G|-------------------------------------------------------------7---------------|
D|-----------------------------------------------------------------------------|
A|--------------------------7--------------5-------5---------------------------| X1
E|------8-------3-8----------8-------------------------------------------------|

G|-----------------------------------------------------------------------------|
D|-------------------------------------------4--6-6-4--------------------------|
A|-----7------4-------7-7-4---4------4-7------------7-4------------------------| X4
E|---------------7------------7------7-----------------------------------------|

G|------------------------------------------------------------------------------|
D|-------7------------------9---------9-9-----5-7-------------------------------|
A|------------------------------------------5-7---------------------------------| X2
E|------------------------------------------------------------------------------|


G|-------------------------------------------------------------7---------------|
D|-----------------------------------------------------------------------------|
A|--------------------------7--------------5-------5---------------------------| X1
E|------8-------3-8----------8---------------------------5---7-----------------|

G|-------------------------------------------------------------7---------------|
D|-----------------------------------------------------------------------------|
A|--------------------------7--------------5-------5---------------------------| X1
E|------8-------3-8----------8-------------------------------------------------|

G|-----------------------------------------------------------------------------|
D|-------------------------------------------4--6-6-4--------------------------|
A|-----7------4-------7-7-4---4------4-7------------7-4------------------------| X6
E|---------------7------------7------7-----------------------------------------|

G|-------------------------------------------------------------7---------------|
D|-----------------------------------------------------------------------------|
A|--------------------------7--------------5-------5---------------------------| X2
E|------8-------3-8----------8-------------------------------------------------|

G|-----------------------------------------------------------------------------|
D|------------------------------------------7------------------------5---------|
A|---------------5------------6-------------------------5----------------------| X1
E|-----------------------------------------------------------------------------|

===============================================================================

ACORDES PARA GUITARRA

PIANO UKELELE


COMENTARIOS

Aún no hay comentarios,

¡escribe el primero!

Escribe una pregunta, duda o comentario sobre esta canción, te responderemos a la brevedad.

Las más tocadas de Talking Heads

Toca una Canción al Azar de Talking Heads