Game of Thrones Theme (Acordes)

Temas de TV

Subida por joez16

Compartir


Cambiar Cifrado
Americano Latino

Cambiar Tonalidad
-1 +1
Imprimir FAQ

Para cambio de tonalidad, zoom, cambio de cifrado, haz clic en este botón


CONSEJO:

Afina tu guitarra antes de tocar. Prueba nuestro afinador en linea.

+A
-A

Texto

Desplazamiento

Transportador

Color de Fondo

Archivos

TONALIDAD, TAMAÑO, CIFRADO, SCROL.

Nos renovamos: Ahora puedes cambiar TODO haciendo clic en ICONO de la Guitarra () que aparece en la parte inferior de esta página.


LETRA CON ACORDES

[Intro]

C5
E|----------------------------------------------|
B|----------------------------------------------|
G|-----------0----------0----------0----------0-|
D|-------1h3--------1h3--------1h3--------1h3---|
A|---3-3--------3-3--------3-3--------3-3-------|
E|----------------------------------------------|

E|----------------------------------------------|
B|----------------------------------------------|
G|-----------0----------0----------0----------0-|
D|-------2h3--------2h3--------2h3--------2h3---|
A|---3-3--------3-3--------3-3--------3-3-------|
E|----------------------------------------------|

[Primeira Parte]

E|------------------------------|
B|------------------------------|
G|----------------0-------------|
D|---5-------1h3-------1h3--0---|
A|---6---3-----------3----------|
E|-------3-----------3------3---|

E|---------------------------------------|
B|---------------------------------------|
G|---------------------------------------|
D|-----------0-----------0-----------0---|
A|-------1h3---------1h3---------1h3-----|
E|---3-3---------3-3---------3-3---------|

E|--------------------------|
B|--------------------------|
G|--------------------------|
D|---3-----1p0-3---1p0------|
A|---1---1-------1------3---|
E|----------------------1---|

[Intro]

E|----------------------------------------------|
B|----------------------------------------------|
G|-----------0----------0----------0----------0-|
D|-------1h3--------1h3--------1h3--------1h3---|
A|---3-3--------3-3--------3-3--------3-3-------|
E|----------------------------------------------|

[Segunda Parte]

E|--------------------------------------------------------------|
B|---8-----4/6--8------4h6---3----------3----------3----------3-|
G|---8--5--5/7--8---5---------------3h5--------3h5--------3h5---|
D|------5-----------5-----------5-5--------5-5--------5-5-------|
A|--------------------------------------------------------------|
E|---------------------------3----------------------------------|

E|----1---------1---------------|
B|----------43----------4p3----|
G|-------3-----------3--------5-|
D|----------------------------5-|
A|----1-----------------------3-|
E|------------------------------|

[Terceira Parte]

E|---15-----15-------11h13--15------11h13----10-|
B|--------------13--------------13-----------11-|
G|-------0------------------------------------0-|
D|----------------------------------------------|
A|-------------------------------------------10-|
E|----------------------------------------------|

E|---13--------11-----------10-----------8---------6---------8--|
B|--------11-------11-----------11----------8---------6------8--|
G|----------------------10-----------10--------8---------7---8--|
D|-----------------------------------------------------------10-|
A|---13---------------------------------------------------------|
E|--------------------------------------------------------------|

[Refrão]

E|---8-------------6h8----6------------4h6----4--------------------3-|
B|---------9--9-----------------6--6----------------1--1--------1--4-|
G|------8--------------------5-------------------1-----------3-----5-|
D|---6----------------------------------------3-----------1--------5-|
A|------------------------6----------------------------3-----------3-|
E|-------------------------------------------------------------------|

E|--------------------------------------------------|
B|----------4--4----------4---------4---------4--4--|
G|-------3-------------3---------3---------5--------|
D|----------------------------3---------5-----------|
A|------------------6-------------------------------|
E|---4----------------------------------------------|

E|---8-------------6h8----6------------4h6----4--------------------|
B|---------9--9-----------------6--6----------------1--1--------1--|
G|------8--------------------5-------------------1-----------3-----|
D|---6----------------------------------------3-----------1--------|
A|------------------------6----------------------------3-----------|
E|-----------------------------------------------------------------|

E|----3------------------------------------------|
B|----4----------4--4----------4-----------------|
G|----5-------3-------------3---------3----------|
D|----5-----------------------------------1p0----|
A|----3------------------6---------5-----------3-|
E|--------4--------------------------------------|

[Intro]

E|----------------------------------------------|
B|----------------------------------------------|
G|-----------0----------0----------0----------0-|
D|-------1h3--------1h3--------1h3--------1h3---|
A|---3-3--------3-3--------3-3--------3-3-------|
E|----------------------------------------------|

Video Clip de Game of Thrones Theme


ACORDES PARA GUITARRA

PIANO UKELELE
C5


TOP 20: Las más tocadas de Temas de TV


Toca una Canción al Azar de Temas de TV

Acordes

Cerrar
C5

23.46


161