Simpsons (Acordes)

Temas de TV

Subida por Alex

Compartir


Imprimir FAQ
+A
-A

Texto

Desplazamiento

Transportador

Color de Fondo

Archivos

-A
+A
E|---0-2-5-3-0---------------------------------------|
B|-1-----------1-------------------------------------|
G|---------------2-------0-------0-3-------0-5-5-5-5-|
D|-----------------4-4-4---4-4-4-----4-4-4-----------|
A|---------------------------------------------------|
E|---------------------------------------------------|

E|---------------------------------------------------|
B|---5--7--9--7--5-----------------------------------|
G|-5----------------5--------------------------------|
D|--------------------5---------------------5-5-5----|
A|----------------------5-5-5-7----5-5-5-7-----------|
E|---------------------------------------------------|

E|--------5----------------------------------------------------|
B|---5--7---8--5-----------------------------------------------|
G|-1--------------5--------------------------------3--5-5-5-5--|
D|------------------7-4-4-4-5--4-4-4-4-5---4-4-4-5-------------|
A|-------------------------------------------------------------|
E|-------------------------------------------------------------|

E|-------------------------------------------------------------|
B|----------10-8-----------------------------------------------|
G|-----9-11------9---------------------------------------------|
D|--10-------------10-8---------------------8-10-10-10-10------|
A|----------------------9-9-9--10--9-9-9 10--------------------|
E|-------------------------------------------------------------|

E|-------------------------------------------------------------|
B|------------9------------------------------------------------|
G|----8--10-----11--8------------------------------------------|
D|--9-----------------9---6------------------------------------|
A|---------------------------8-8-8/9~~-8-8-8/9--14-14-14-14----|
E|-------------------------------------------------------------|


Video Clip de Simpsons


ACORDES PARA GUITARRA

PIANO UKELELE


TOP 20: Las más tocadas de Temas de TV


Toca una Canción al Azar de Temas de TV

Acordes

Cerrar

11.17

x

169