A Busca (Acordes)

Testemunhas de Jeová

Subida por Abels

Compartir


Cambiar Cifrado
Americano Latino

Cambiar Tonalidad
-1 +1
Imprimir FAQ

Para cambio de tonalidad, zoom, cambio de cifrado, haz clic en este botón


CONSEJO:

Afina tu guitarra antes de tocar. Prueba nuestro afinador en linea.

+A
-A

Texto

Desplazamiento

Transportador

Color de Fondo

Archivos

TONALIDAD, TAMAÑO, CIFRADO, SCROL.

Nos renovamos: Ahora puedes cambiar TODO haciendo clic en ICONO de la Guitarra () que aparece en la parte inferior de esta página.


LETRA CON ACORDES

[Intro]

E|------7-----7-----7------------|
B|---5-----5-----5----5---5---5--|
G|-7---7-----7-----7----7---7---7|
D|-------------------------------|
A|-------------------------------|
E|-------------------------------|

E|------7-----7-----7------------|
B|---5-----5-----5----5---5---5--|
G|-7---7-----7-----7----7---7---7|
D|-------------------------------|
A|-------------------------------|
E|-------------------------------|

E|------8-----8-----8------------|
B|---5-----5-----5----5---5---5--|
G|-7---7-----7-----7----7---7---7|
D|-------------------------------|
A|-------------------------------|
E|-------------------------------|

E|------7-----7-----7------------|
B|---5-----5-----5----5---5---5--|
G|-7---7-----7-----7----7---7---7|
D|-------------------------------|
A|-------------------------------|
E|-------------------------------|

E|------7-----7-----7------------|
B|---7-----7-----7----7---7---7--|
G|-7---7-----7-----7----7---7---7|
D|-------------------------------|
A|-------------------------------|
E|-------------------------------|

[Primeira Parte]

Em         D  Em        D   C
  Quem procurar vai encontrar
                Am   D
A joia que tem mais valor
Em           D     Em
  Perguntas que só Deus
         D  C
Pode responder
              Am  D
A nossa busca co_meçou

[Pré-Refrão]

C            D
  A verdade é pérola no mar
G       D/Gb            Em
  Nos lutamos pra encontrar
  D      C     Am   D
E ela está tão perto

[Refrão]

   G                 Em
Abrir as velas, navegar
                 D
Nas ondas desse mar
                   C         G
De coisas que eu quero entender
                D/Gb
De onde o homem vem,
          C
Pra onde vamos
                   D
E o que vai acontecer
               Em
Sei que vou achar

[Segunda Parte]

Em           D  Em            D  C
  Nesse imenso mar uma luz brilhou
              Am    D
Um nome sem igual, Jeová
Em      D  Em             D   C
  Não era mais um Deus qualquer
                 Am    D
Nos deu um rumo pra encontrar

[Pré-Refrão]

C
 Pouco a pouco assim
D
 A verdade foi
G    D/Gb         Em      D  Em/C
 Renovando nossa mente e coração
     C    D
Pra sempre

[Refrão]

   G                D/Gb
Abrir as velas, navegar
                 D
Nas ondas desse mar
          C          G
Me fez achar e entender
                D/Gb
De onde o homem vem,
                     C
Por que Deus tem um Reino
                   D
E o que ele vai fazer
                Em
Busque e vai achar

[Ponte]

       C         D
Agora vamos buscar os que estão
      Em
Procurando
      C  D       Em
Essa pérola no mar
C      D              Em
E ajudar a achar respostas
    Am            D
Navegar e descobrir

A verdade que encontramos

[Solo] G  Em  C  Am 
       D  Em  C  Am  D

E|------7-----7-----7------------|
B|---5-----5-----5----5---5---5--|
G|-7---7-----7-----7----7---7---7|
D|-------------------------------|
A|-------------------------------|
E|-------------------------------|

E|------7-----7-----7------------|
B|---5-----5-----5----5---5---5--|
G|-7---7-----7-----7----7---7---7|
D|-------------------------------|
A|-------------------------------|
E|-------------------------------|

E|------8-----8-----8------------|
B|---5-----5-----5----5---5---5--|
G|-7---7-----7-----7----7---7---7|
D|-------------------------------|
A|-------------------------------|
E|-------------------------------|

E|------8-----8-----8------------|
B|---7-----7-----7----7---7---7--|
G|-7---7-----7-----7----7---7---7|
D|-------------------------------|
A|-------------------------------|
E|-------------------------------|

E|--------10-----10-----10-------|
B|----8------8------8------8----8|
G|-11---11-----11-----11-----11--|
D|-------------------------------|
A|-------------------------------|
E|-------------------------------|

E|--------12-----12-----12-------|
B|-------------------------------|
G|----9------9------9------9----9|
D|-12---12-----12-----12-----12--|
A|-------------------------------|
E|-------------------------------|

E|-------8------8------8---------|
B|---8------8------8------8---8--|
G|-9---9------9------9------9----|
D|-------------------------------|
A|-------------------------------|
E|-------------------------------|

E|------7-----7-----7------------|
B|---5-----5-----5----5---5---5--|
G|-7---7-----7-----7----7---7---7|
D|-------------------------------|
A|-------------------------------|
E|-------------------------------|

[Refrão]

   G                Em
Abrir as velas, navegar
                 D
Nas ondas desse mar
           C             G
E quem buscar vai entender
                D/Gb
De onde o homem vem,
         C
O que o Reino fez
               D
E ainda vai fazer
                 G
Busque e vai achar!

[Solo Final]

E|------7-----7-----7------------|
B|---5-----5-----5----5---5---5--|
G|-7---7-----7-----7----7---7---7|
D|-------------------------------|
A|-------------------------------|
E|-------------------------------|

E|------7-----7-----7------------|
B|---5-----5-----5----5---5---5--|
G|-7---7-----7-----7----7---7---7|
D|-------------------------------|
A|-------------------------------|
E|-------------------------------|

E|------8-----8-----8------------|
B|---5-----5-----5----5---5---5--|
G|-7---7-----7-----7----7---7---7|
D|-------------------------------|
A|-------------------------------|
E|-------------------------------|

E|------8-----8-----8------------|
B|---5-----5-----5----5---5---5--|
G|-7---7-----7-----7----7---7---7|
D|-------------------------------|
A|-------------------------------|
E|-------------------------------|

E|---7---------------------------|
B|---8---------------------------|
G|---7---------------------------|
D|---5---------------------------|
A|-------------------------------|
E|-------------------------------|
     ?

Video Clip de A Busca


ACORDES PARA GUITARRA

PIANO UKELELE
Em
D
C
Am
G
D/Gb
Em/C


TOP 20: Las más tocadas de Testemunhas de Jeová


Acordes

Cerrar
Em
D
C
Am
G
D/Gb
Em/C

01.51


104