Cántico Nº 08 a Ceia do Senhor (Acordes)

Testemunhas de Jeová

Subida por cash

Compartir


Imprimir FAQ
+A
-A

Texto

Desplazamiento

Transportador

Color de Fondo

Archivos

-A
+A
E|---------------------------------------------------------------------|
B|---------------------------------------------------------------------|
G|----------------------------------------------------------0-2-3------|
D|--0--0---0-0-3-3-1-------0---3--0-0---0---0-0-3-3-1----0-0-------0---|
A|--1--1-------1-----3-3-----1------1---1-------1------3---------------|
E|--1--1-1---------------1----------1-1-1-1--------------3-------------|

E|-----------------------------------------------------------------|
B|--------------------------------------------------------------1--|
G|------0-------------------------0---------------------------2----|
D|--0-3-----------0-1-3-0-------0-----1---1-0---------0---0-4------|
A|--0---3--3-3-3--1---1---1-1-1-----1---------3---1-3-0-0----------|
E|----------------------------3---------3-------3-----2------------|

E|-------------------------------------------------------------------|
B|----1--------------------------------------------------------------|
G|----2-0---0-0-0---2-3-2---------------0---0-0-0---2-3-2----------0-|
D|--0-----0-----0-0-----3---0-------0-0------------------------2-2---|
A|------1---1-3---------0-0---0---0-0---1-1-0-1-3-3-----3-0-0--------|
E|------------------------------3------------------------------------|

E|---------------------------------------------------------|
B|--------------1-----1-3---1------------------------------|
G|--0-2-3---2-3-----3---------3----------------------------|
D|--0-0-0-0-0-0-1-1-----3-0-----3---3-1-0-0-0-0-3-1-1------|
A|--------------------------------1-----1-----------0-3-1--|
E|------------------------------------------------------1--|


Video Clip de Cántico Nº 08 a Ceia do Senhor


ACORDES PARA GUITARRA

PIANO UKELELE


TOP 20: Las más tocadas de Testemunhas de Jeová


Acordes

Cerrar

11.41

x

219