Cântico 142 (Acordes)

Testemunhas de Jeová

Subida por Crisfloes

Compartir


Imprimir FAQ
+A
-A

Texto

Desplazamiento

Transportador

Color de Fondo

Archivos

-A
+A
1e)------0-------------------0--------------------0--2--0--0-------------------------
2B)---2-----3--3--2--3--2-3------2----------2--3--------------3--3---2---0-----------
3G)----------------------------------------------------------------------------------
4D)----------------------------------------------------------------------------------
5A)----------------------------------------------------------------------------------
6E)----------------------------------------------------------------------------------


1e)---0--2--4--4------0--0--2--2--4--5----------2--4--5--5------2--9--7--7--5--7-----
2B)----------------------------------------------------------------------------------
3G)----------------------------------------------------------------------------------
4D)----------------------------------------------------------------------------------
5A)----------------------------------------------------------------------------------
6E)----------------------------------------------------------------------------------


1e)---5--4--5--0--0----------5--4--5--0--0----------5--5--0--0-----2--0--0-----0-----
2B)------------------2-3--------------------2-3-----------------------------3--------
3G)-------------------------------------------------------------2--------------------
4D)----------------------------------------------------------------------------------
5A)----------------------------------------------------------------------------------
6E)----------------------------------------------------------------------------------


1e)---9--7--5--0--0----------9--7--5--0--0---2---2--4--5--5--0--0--------------------
2B)------------------2-3---------------------------------------------0----2----------
3G)---------------------------------------2-----------------------2------------2-----
4D)----------------------------------------------------------------------------------
5A)----------------------------------------------------------------------------------
6E)----------------------------------------------------------------------------------

Video Clip de Cântico 142


ACORDES PARA GUITARRA

PIANO UKELELE
B
G
D
A
E


TOP 20: Las más tocadas de Testemunhas de Jeová


Acordes

Cerrar
B
G
D
A
E

10.52

x

92