A Alegria dos Congressos (Acordes)

Testemunhas de Jeová


Subida por sandraa

Compartir


Cambiar Cifrado
Americano Latino

Cambiar Tonalidad
-1 +1
Imprimir FAQ

Para cambio de tonalidad, zoom, cambio de cifrado, haz clic en este botón


CONSEJO:

Afina tu guitarra antes de tocar. Prueba nuestro afinador en linea.

+A
-A

Texto

Desplazamiento

Transportador

Color de Fondo

Archivos

TONALIDAD, TAMAÑO, CIFRADO, SCROL.

Nos renovamos: Ahora puedes cambiar TODO haciendo clic en ICONO de la Guitarra () que aparece en la parte inferior de esta página.


LETRA CON ACORDES

[Intro] D  Em7(9)  G7M/B  D  Em7(9)  G7M/B


  D         Em7(9)   G7M/B
E|----2--x------2--x-----2-x-2-----2-|
B|----3--x------3--x-----3-x-3---3---|
G|----2--x------0--x-----0-x-0-0-----|
D|-0-----x--0/2----x-----------------|
A|-------------------0/2---x-2-------|
E|-----------------------------------|

  D         Em7(9)   G7M/B
E|----2--x------2--x-----2-x-2-------|
B|----3--x------3--x-----3-x-3----x--|
G|----2--x------0--x-----0-x-0----x--|
D|-0-----x--0/2----x--------------x--|
A|-------------------0/2---x-2----x--|
E|-----------------------------------|

[Verso 1]

D         Em7(9)    G7M/B
 Escuto a música, estou ao seu lado
D       Em7(9)  G7M/B
 Que alegria,       que emoção!
D          Em7(9)   G7M/B
 O mundo é dor mas aqui temos paz,
D    Em7(9)  G7M/B
 Felicidade,    amor e união
D      Em7(9)  G7M/B    D  Em7(9)  G7M/B
 Oh,oh,oh, oh,oh, oh,ohh


[Refrão]

   G/B                A
E|-----------------------------------|
B|-----3--x--3.---x-----2--x--2.---x-|
G|-----0--x--0.---x-----2--x--2.---x-|
D|-----0--x--0.---x-----2--x--2.---x-|
A|--2-----x--2.---x---0----x--0.---x-|
E|-----------------------------------|

   D               D4       D   D9
E|-----2-x-2.---x-----3--x--2.--0--|
B|-----3-x-3.---x-----3--x--3.-----|
G|-----2-x-2.---x-----2--x--2.-----|
D|--0----x-0.---x---0--------------|
A|---------------------------------|
E|---------------------------------|


G/B                  A
 Somos filhas, somos filhos, 
                 D    D4  D  D9
Pais, irmãs e irmãos
G/B                A
 Mesmo sem te conhecer, 
              D  Em7(9)  G7M/B  D  Em7(9)  G7M/B
Te amo de coração


[Verso 2]

D             Em7(9)  G7M/B
 Um mar de gente ao meu redor, 
D      Em7(9)  G7M/B
 Amo estar aqui
D           Em7(9)    G7M/B
 Meus olhos surfam em rostos diferentes,
D      Em7(9)  G7M/B           D  Em7(9)  G7M/B
 É a família       que conheci

D         Em7(9)     G7M/B
 Por todo lado eu só vejo os meus irmãos
D        Em7(9)     G7M/B
 E é tão lindo de olhar!
D       Em7(9)  G7M/B
 Eu agradeço no coração
D       Em7(9)  G7M/B
 E me seguro,      pra não chorar.


[Refrão]

G/B                  A
 Somos filhas, somos filhos, 
                 D    D4  D  D9
Pais, irmãs e irmãos
G/B                A
 Mesmo sem te conhecer, 
              D    D4  D  D9
Te amo de coração
G/B                  A
 Somos filhas, somos filhos, 
                 D    D4  D  D9
Pais, irmãs e irmãos
G/B                A
 Mesmo sem te conhecer, 
              D  Em7(9)  G7M/B
Te amo de coração


[Ponte]

Bm7   G9   D   A
   Me dê a mão
Bm7       G9         D   A
   Ao seu lado vou estar
Bm7  G9    D   A
   E caminhar
Bm7                       
   A vida eterna
G               D  Em7(9)  G7M/B  D  Em7(9)  G7M/B
 É nossa direção

[Refrão]

G/B                  A
 Somos filhas, somos filhos, 
                 D    D4  D  D9
Pais, irmãs e irmãos
G/B                A
 Mesmo sem te conhecer, 
              D    D4  D  D9
Te amo de coração
G/B                  A
 Somos filhas, somos filhos, 
                 D    D4  D  D9
Pais, irmãs e irmãos
G/B                A
 Mesmo sem te conhecer, 
              D  Em7(9)  G7M/B  D  Em7(9)  G7M/B
Te amo de coração

G                   A 
 Mesmo sem te conhecer
              (D)
Te amo de coração

[Solo Final]

                         D
E|-2-------2----------------2---|
B|---3---3--3--------------3----|
G|-----2--------0---------2-----|
D|-----------------4.----0------|
A|------------------------------|
E|------------------------------|

Video Clip de A Alegria dos Congressos


ACORDES PARA GUITARRA

PIANO UKELELE
D
Em9
Gmaj7/B
G/B
A
D4
D9
Bm7
G9


TOP 20: Las más tocadas de Testemunhas de Jeová


Acordes

Cerrar
D
Em9
Gmaj7/B
G/B
A
D4
D9
Bm7
G9

21.14


119