Compartir


Imprimir FAQ
+A
-A

Texto

Desplazamiento

Transportador

Color de Fondo

Archivos

-A
+A
INTRO/VERSE

G|----------------------|
D|----------------------|
A|----------------------|
E|--5-5--8-8--3-3--2-2--|

INTRO TO CHORUS

G|-------------------|
D|-------------------|
A|-------------------|
E|--5-5--3-3--5~~~~~-|

CHORUS

G|------------------------------------------|
D|------------------------------------------|
A|--8-8--8-8--------------------------------|
E|------------8-8--8-8--3-3--3-3--5-5--5-5--|

G|-------------------------------------------|
D|-------------------------------------------|
A|--8-8--8-8---------------------------------|
E|------------8-8--8-8---5-5--3-3--5~~~~~~~~-|

BRIDGE

G|--------------------------|
D|--------------------------|
A|--8~~~--------------------|
E|--------8~~~--3~~~--5~~~--|

HERRAMIENTAS ACORDESWEB:


LETRA DE LA CANCIÓN:

Ver la letra sola (sin acordes)

OTRAS VERSIONES DE LA MISMA CANCIÓN:

Ver. 2

DESCARGAR PDF / IMPRIMIR CANCIÓN



ACORDES PARA GUITARRA

PIANO UKELELE


TOP 20: Las más tocadas de The Bravery


Toca una Canción al Azar de The Bravery

Acordes

Cerrar

01.21

x

46