Out Of Line
The Bravery
Acordes

Subida por oscarnay
Álbum: The Bravery ( 2005)


Más Versiones
Ver. 2

Cambiar Cifrado
Americano Latino

Cambiar Tonalidad
-1 +1

Partir Pantalla Imprimir FAQ

+A
-A


Ver solo la LETRA
OUT OF LINE


Transcribed by: Damian Pamminger (TwitcheD*)

Standard tuning: E A D G B E

Chords:
Bm x24432
D xx0232
A x02220
E 022100
F 244322

Rhy. Fig. 1a
|-7---7-----7---------7---7-----5--------|
|-7---7-----5---------7---7-----5--------|
|-7---7-----6---------7---7-----6--------|
|-9---9-----7---------9---9-----7--------|
|----------------------------------------|
|----------------------------------------|

Rhy. Fig. 1b
|-7---7-----7---------7---7---7---7---5---5---5---5--|
|-7---7-----5---------7---7---7---7---5---5---5---5--|
|-7---7-----6---------7---7---7---7---6---6---6---6--|
|-9---9-----7---------9---9---9---9---7---7---7---7--|
|----------------------------------------------------|
|----------------------------------------------------|

Rhy. Fig. 2a (Chorus)

Forgive me if I'm out of li_________ne... (Repeat 3x)
Bm D A E

then:

Bm D A F


Rhy. Fig. 2b (Solo)
Bm D A E (Repeat 2x)


Rhy. Fig. 2c (Last Chorus)
Bm D A E (Repeat 3x)
Bm


End:
Bm

ACORDES PARA GUITARRA

PIANO UKELELE


COMENTARIOS

Aún no hay comentarios,

¡escribe el primero!

Escribe una pregunta, duda o comentario sobre esta canción, te responderemos a la brevedad.

Las más tocadas de The Bravery

Toca una Canción al Azar de The Bravery