Compartir


Cambiar Cifrado
Americano Latino

Cambiar Tonalidad
-1 +1
Imprimir FAQ
+A
-A

Texto

Desplazamiento

Transportador

Color de Fondo

Archivos

TONALIDAD, TAMAÑO, CIFRADO, SCROL.

Nos renovamos: Ahora puedes cambiar TODO haciendo clic en ICONO de la Guitarra () que aparece en la parte inferior de esta página.


LETRA CON ACORDES

               (1010 = 10s in quick succession)
G|-----------------------------------------------------------------------------|
D|-----------------------------------------------------------------------------|
A|-5-55-33/8-88/1010---------------33------------------------------------------|
E|--------------------5-55-33-5-55---------------------------------------------|
  (1:36)
G|---------------------------------------------------------------------------|
D|---------------------------------------------------------------------------|
A|-8-88-77-8-88-77--------------33-8-88-77-8-88-77--------------33-----------|
E|-----------------5-55-33-5-55--------------------5-55-33-5-55--------------|

Video Clip de All I Want


ACORDES PARA GUITARRA

PIANO UKELELE


TOP 20: Las más tocadas de The Cure


Toca una Canción al Azar de The Cure

Acordes

Cerrar

22.35

x

80