Compartir


Cambiar Cifrado
Americano Latino

Cambiar Tonalidad
-1 +1
Imprimir FAQ
+A
-A

Texto

Desplazamiento

Transportador

Color de Fondo

Archivos

TONALIDAD, TAMAÑO, CIFRADO, SCROL.

Nos renovamos: Ahora puedes cambiar TODO haciendo clic en ICONO de la Guitarra () que aparece en la parte inferior de esta página.


LETRA CON ACORDES

[Intro] A  Bm  C#m  D
        D5  C#m  Bm  A
        A  Bm  C#m  D
        D  C#m  Bm  A

[Solo]

E|-------------------------------------------|
B|-2-2-3-5--2-2--3-5--5-5-7-9-10-7-5-3-2-----|
G|-------------------------------------------|
D|-------------------------------------------|
A|-------------------------------------------|
E|-------------------------------------------|

A               Bm         C#m                    D
I would say I'm sorry if I thought that it would change your mind
A               Bm         C#m                    D
But I know that this time I have said too much, been to unkind
C#m             Bm         C#m                 Bm
I try to laugh about it, cover it all up with lies
C#m               Bm         C#m                     Bm
    I try to laugh about it, hiding the tears in my eyes

[Refrão]

[Solo]

E|-----------------------------2-4-5-2---------|
B|-2-2-2-3-5--2-2-2-3-5--5-5-5----------5-3-2--|
G|---------------------------------------------|
D|---------------------------------------------|
A|---------------------------------------------|
E|---------------------------------------------|

A  Bm  C#m  D )
D  C#m  Bm  A )

Cos' boys don't cry
Boys don't cry

A               Bm         C#m                    D
I would break down at your feet and beg forgiveness, plead with you
A               Bm         C#m                    D
But I know that it's too late and now there's nothing left that I can do
C#m             Bm         C#m                    Bm
So I try to laugh about it, cover it all up with lies
C#m               Bm         C#m                 Bm
I try to laugh about it, hiding the tears in my eyes

[Refrão]

A               Bm         C#m                    D
I would tell you that I loved you if I thought that you would stay
A               Bm         C#m                    D
But I know that it's no use that you've already gone away

E               F#m      E               F#m
 Misjudged your limit,  pushed you too far
E             F#m      Bm                  E
 Took you for granted, I thought that you needed me more
A               Bm         C#m                    D
Now I would do most anything to get you back by my side
A               Bm         C#m                    D
But I just keep on laughing, hiding the tears in my eyes

E|-----------------------------2-4-5---2-----|
B|-2-2-2-3-5--2-2-2-3-5--5-5-5----------5-3-2|
G|-------------------------------------------|
D|-------------------------------------------|
A|-------------------------------------------|
E|-------------------------------------------|

A  Bm  C#m  D )
D  C#m  Bm  A )
A )

Cos' boys don't cry
Boys don't cry
Boys don't cry

Video Clip de Boys Don't Cry


ACORDES PARA GUITARRA

PIANO UKELELE
A
Bm
C#m
D
D5
E
F#m


TOP 20: Las más tocadas de The Cure


Toca una Canción al Azar de The Cure

Acordes

Cerrar
A
Bm
C#m
D
D5
E
F#m

00.09

x

172