Compartir


Cambiar Cifrado
Americano Latino

Cambiar Tonalidad
-1 +1
Imprimir FAQ
+A
-A

Texto

Desplazamiento

Transportador

Color de Fondo

Archivos

TONALIDAD, TAMAÑO, CIFRADO, SCROL.

Nos renovamos: Ahora puedes cambiar TODO haciendo clic en ICONO de la Guitarra () que aparece en la parte inferior de esta página.


LETRA CON ACORDES

Guitar 1 

Part 1 : (use tremolo if available) 

|-0-----------0------0-----------0------x------
|---0-------0----------0-------0--------4------
|-----3---3--------------3---3----------4------4 x2 
|-------3------------------3------------4------
|---------------------------------------2------
|---------------------------------------x------
  

Part 2 : 

( D|- B|- D|- B|- G|- F - B|- G|- F - B ) x2 

When Playing D and B chords : at the middle of the bar we change to
Dsus4 or Bsus4 and at the end we change again to D or B . 
  
  

Part 3 : 

|-------------------------------- 
|-1---1-----1-----1---1-----1---- 
|-------4-----4---------4-----4-- 
|--------------------------------  
|-------------------------------- | 
|-------------------------------- | 
                                  |> x3 
|-------------------------------- | 
|-------3-----0---------3-----0-- | 
|-4---4-----4-----4---4-----4---- / 
|-------------------------------- 
|-------------------------------- 
|-------------------------------- 

|-------------------------------- 
|-1---1-----1-----1---1-----1---- 
|-------4-----4---------4-----4-- 
|-------------------------------- 
|-------------------------------- 
|-------------------------------- 

|-------------------------------- 
|-------3-----0---------5-----0-- 
|-4---4-----4-----4---4-----4---- 
|-------------------------------- 
|-------------------------------- 
|-------------------------------- 
  

Part 4 : 
The same as part 1 . 
  

Part 5 : 
The same as part 2 . 

Part 6 : 
The same as part 1 . 
  

Guitar 2 
(The second guitar doesn't sound very clear so it's possible I have
some mistakes . If you have any objections please mail :)) 

Part 1 : 
Nothing 

Part 2 (When there are no vocals) 

|----14-------------14------ 
|-12----15-------12----12--- 
|---------------------------  x2 
|--------------------------- 
|--------------------------- 
|--------------------------- 
  

Part 2 (When there are vocals) 

|----14----10------14---14-12-12-10-7-10-7-------5-2---0------ 
|-12----12------12---------------------------------------3---- 
|------------------------------------------------------------- 
|------------------------------------------------------------- 
|------------------------------------------------------------- 
|------------------------------------------------------------- 
  

Part 3 (When the 3rd bar begins) 

|-5-5-2-2-3-3-2---5-5-2-2-3-3-2--- 
|--------------------------------- 
|---------------------------------  x2 
|--------------------------------- 
|--------------------------------- 
|--------------------------------- 
  

Part 4 : 
Nothing 
  

Part 5 : 

|----14------------------------------- 
|-12----15-------12-10---12--10---7--- 
|------------------------------------- 
|------------------------------------- 
|------------------------------------- 
|------------------------------------- 

Part 6 : 
Nothing 
  

Part 1 

Part 2 
The sun rises slowly on another day 
The eastern sky grows cold 
Winter in water colours 
Shades of grey 

Part 3 
Something holds me 
Holds me hypnotized... 

Part 4 

Part 5 
I stare at the window , stare at the window 
Waiting for the day to go 
Winter in water colours 
Shades of grey 

Part 6 

Video Clip de Another Day


ACORDES PARA GUITARRA

PIANO UKELELE
F
B
D
Dsus4
Bsus4


TOP 20: Las más tocadas de The Cure


Toca una Canción al Azar de The Cure

Acordes

Cerrar
F
B
D
Dsus4
Bsus4

22.04

x

203