Compartir


Cambiar Cifrado
Americano Latino

Cambiar Tonalidad
-1 +1
Imprimir FAQ
+A
-A

Texto

Desplazamiento

Transportador

Color de Fondo

Archivos

TONALIDAD, TAMAÑO, CIFRADO, SCROL.

Nos renovamos: Ahora puedes cambiar TODO haciendo clic en ICONO de la Guitarra () que aparece en la parte inferior de esta página.


LETRA CON ACORDES


In article  you write:
>
>verse riff                    "pretending to swim...."
>
>E-------------------------- |  --------------------------|
>B-------------------------- |  ------0-----------0-------|
>G----2-----0-----0-----0---.|  -----5--5-5------4--4-4---|
>D---2-----4-----4-----4----.|  ----7----7-7----6----6-6--|
>A--0---0-3---3-5---5-3---3- |  --------------------------|
>E-------------------------- |  --8-----------7-----------|
>
>Interlude
>
>E-------------------- |-------------------|
>B----5---1---3---3--- |----5---1---3------|
>G---2---2---2---2-2--.|---2---2---2----4--|
>D------3---0---0-----.|------3---0----4---|
>A--0----------------- |--0-----------2----|
>E-------------------- |-------------------|
>
>2nd Interlude ends with:
>
>E---------------------------------------------|
>B----5---1---3--------------------------------|
>G---2---2---2----4-----2----------------------|
>D------3---0----4-----2------0-----0-----0----|
>A--0-----------2---2-0---0--5-----4-----3-----|
>E--------------------------3---3-2---2-1---1--|
>
>the End
>
>E---------------------------------------------------------------------|
>B------0---------0---------0---------0---------0---------0------------|
>G-----5-5-5-----4-4-4-----3-3-3-----2-2-2-----1-1-1-----0-0-0-----2---|
>D----7---7-7---6---6-6---5---5-5---4---4-4---3---3-3---2---2-2---2----|
>A---------------------------------------------------------------0-----|
>E--8---------7---------6---------5---------4---------3----------------|
>--
>I am a deaths-head in your frock,
>-Sam
>Your sister is a beauty when she's naked, like my kid.
>We are the dead.


--
I am a deaths-head in your frock,
-Sam
Your sister is a beauty when she's naked, like my kid.
We are the dead.

Video Clip de In Your House


ACORDES PARA GUITARRA

PIANO UKELELE


TOP 20: Las más tocadas de The Cure


Toca una Canción al Azar de The Cure

Acordes

Cerrar

20.39

x

212