Compartir


Cambiar Cifrado
Americano Latino

Cambiar Tonalidad
-1 +1
Imprimir FAQ
+A
-A

Texto

Desplazamiento

Transportador

Color de Fondo

Archivos

TONALIDAD, TAMAÑO, CIFRADO, SCROL.

Nos renovamos: Ahora puedes cambiar TODO haciendo clic en ICONO de la Guitarra () que aparece en la parte inferior de esta página.


LETRA CON ACORDES

Intro
G|--------------------------------|
D|--------------------------------|
A|-----14-16-----------------76---|
E|-----------------------------97-|

G|-------------------|
D|-------------------|   x3
A|------67------76---|
E|-9-9-9--7-7-7---97-|

G|-----------------------|
D|-----------------------|
A|----6-7-9-11-9--676----|
E|-99-----------------79-|

Verse
G|------------------------------------|
D|----------44-4-4-66-----------------|
A|-----------------------------4-4464-|
E|-55555555-----------77777777--------|

G|------------------4-----------------|
D|----------44-4-4-6------------------|
A|-----------------------------4-4467-|
E|-55555555-----------77777777--------|

G|--------------------------------6-----|
D|----------44-4-4-66------------6?-6---|
A|-----------------------------4-----6--|
E|-55555555-----------77777777--------7-|

G|--------------------------------------|
D|----------44-4-4-66-------------------|
A|-----------------------------4444-464-|
E|-55555555------------77777777---------|

Pre-Chorus
G|-------------------|
D|-------------------|
A|----------777---6--|
E|-7-777777----9-9-9-|

G|--------------------|
D|--------------------|
A|----------------6---|
E|--7-7777779999-9-9--|

G|----------------------|
D|----------------------|
A|-----------777----6---|
E|--7-777777-----9-9-9--|

G|------------------|
D|------------------|
A|------------------|
E|-5555555544444444-|

Chorus
G|------------------|
D|------------------|   x3
A|------67----------|
E|-9-9-9--7-7-77777-|

G|----------------------|
D|----------------------|
A|----6-7-9-11-9--676---|
E|-99----------------79-|

Verse

Pre-Chorus

Chorus #2
G|------------------|
D|------------------|   x4
A|------67----------|
E|-9-9-9--7-7-77777-|

G|-----------------------|
D|-----------------------|
A|-----------9/16---76---|
E|-9------------------97-|

Chorus #3
G|-------------------|
D|-------------------|   x3
A|------67------76---|
E|-9-9-9--7-7-7---97-|

G|-----------------|
D|-----------------|
A|-----------------|
E|-9-9-999-7-7-777-|

Solo
G|------------------------------8-9-11-|
D|-11--13-14-13-11---------9-11--------|
A|-----------------11-9-11-------------|
E|-------------------------------------|

G|------------------------------11-9-8-9-|
D|-11--13-14-13-11---------9-11----------|
A|-----------------11-9-11---------------|
E|---------------------------------------|

             (Play twice)

Chorus #4
G|-------------------|
D|-------------------|  x3
A|-------------------|
E|-9-999999-7777-777-|

G|-------------------------------------|
D|-------------------------------------|
A|-9/1616161616161616-1414141414141414-|  (Those are 16's and 14's)
E|-------------------------------------|

G|---------------|
D|---------------|
A|---------------|
E|-9-------------|  (Let it ring)

Video Clip de Its Not You


ACORDES PARA GUITARRA

PIANO UKELELE


TOP 20: Las más tocadas de The Cure


Toca una Canción al Azar de The Cure

Acordes

Cerrar

20.00

x

67