Primary (Acordes)

The Cure

Full Álbum: Faith (1981)
Subida por PASSIOn

Compartir


Cambiar Cifrado
Americano Latino

Cambiar Tonalidad
-1 +1
Imprimir FAQ
+A
-A

Texto

Desplazamiento

Transportador

Color de Fondo

Archivos

TONALIDAD, TAMAÑO, CIFRADO, SCROL.

Nos renovamos: Ahora puedes cambiar TODO haciendo clic en ICONO de la Guitarra () que aparece en la parte inferior de esta página.


LETRA CON ACORDES

(intro)

G|----------------------------------|
D|------------------0-7-7-7-7-7-7-7-|
A|-5-7-7-7-7-7-7-7------------------|
E|----------------------------------|

The innocence of sleeping children
Dressed in white
And slowly dreaming
Stops all time
I slow my steps
And start to blur
So many years have filled my heart
I never thought I'd say those words

G|----------------------------------|
D|------------------0-7-7-7-7-7-7-7-|
A|-5-7-7-7-7-7-7-7------------------|
E|----------------------------------|

The further we go
And older we grow
The more we know
The less we show

G|----------------------------------|
D|------------------0-7-7-7-7-7-7-7-|
A|-5-7-7-7-7-7-7-7------------------|
E|----------------------------------|

The very first time I saw your face
I thought of a song
And quickly changed the tune
The very first time I touched your skin
I thought of a story
And rushed to reach the end
Too soon

G|----------------------------------|
D|------------------0-7-7-7-7-7-7-7-|
A|-5-7-7-7-7-7-7-7------------------|
E|----------------------------------|

Oh remember
Please
Don't change

G|-----------------------------------------------|
D|-10-10-10-10-10-10-10--12-12-12-12-12-12-12-12-|
A|-----------------------------------------------|
E|-----------------------------------------------|

(2x)

G|----------------------------------|
D|------------------0-7-7-7-7-7-7-7-|
A|-5-7-7-7-7-7-7-7------------------|
E|----------------------------------|

And so the fall came
Thirteen years
A shiny ring
And how I could forget your name
The air no longer in my throat
Another perfect lie is choked
But it always feels the same

G|----------------------------------|
D|------------------0-7-7-7-7-7-7-7-|
A|-5-7-7-7-7-7-7-7------------------|
E|----------------------------------|

So they close together
Dressed in red and yellow
Innocent forever
Sleeping children in their
Blue soft room
Still dream...

G|-----------------------------------------------------------------|
D|-5-5-5-5-5-5-5-5-7-7-7-7-7-7-7-7-5-5-5-5-5-5-5-5-7-7-7-7-7-7-7-7-|
A|-----------------------------------------------------------------|
E|-----------------------------------------------------------------|

G|-----------------------------------------------------------------------------------|
D|-5-5-5-5-5-5-5-5-7-7-7-7-7-7-7-7-3-3-3-3-3-3-3-3-3-3-3-3-3-10-10-10-10-10-10-10-10-|
A|-----------------------------------------------------------------------------------|
E|-----------------------------------------------------------------------------------|

G|-----------------------------------|
D|-9-9-9-9-9-9-9-9-10-10-10-10-12-10-|
A|-----------------------------------|
E|-----------------------------------|

G|----------------------------------|
D|------------------0-7-7-7-7-7-7-7-|
A|-5-7-7-7-7-7-7-7------------------|
E|----------------------------------|

G|----------------------------------|
D|------------------0-7-7-7-7-7-7-7-|
A|-5-7-7-7-7-7-7-7------------------|
E|----------------------------------|

G|-----------------------------|
D|------------------0-12-11-12-|
A|-5-7-7-7-7-7-7-7-------------|
E|-----------------------------|

G|--------------------------------|
D|------------------9-12-12-11-11-|
A|-5-7-7-7-7-7-7-7----------------|
E|--------------------------------|

Video Clip de Primary


ACORDES PARA GUITARRA

PIANO UKELELE


TOP 20: Las más tocadas de The Cure


Toca una Canción al Azar de The Cure

Acordes

Cerrar

19.20

x

86