Compartir


Cambiar Cifrado
Americano Latino

Cambiar Tonalidad
-1 +1
Imprimir FAQ
+A
-A

Texto

Desplazamiento

Transportador

Color de Fondo

Archivos

TONALIDAD, TAMAÑO, CIFRADO, SCROL.

Nos renovamos: Ahora puedes cambiar TODO haciendo clic en ICONO de la Guitarra () que aparece en la parte inferior de esta página.


LETRA CON ACORDES

Standard tuning: E A D G

Fig. 1 (4x) - 0:00
|-7----------11---9---7---6--7-9----------11---12---14--11--------------------------|
|-----9-------------------------------------------------------14---12---------------|
|-----------------------------------------------------------------------10---9---7--|
|-----------------------------------------------------------------------------------|

|-----------|
|-----------|
|-5---4---0-|
|-----------|

Fig. 2 (6x) - 0:14
|----------------------|
|----------------------|
|-2--------------------|
|------------3---------|

0:55 - Fig. 1 (1x)
1:09 - Fig. 2 (4x)
1:36 - Fig. 1 (1x)

1:50 (4x)
|------------------------------------------------------------|
|------------------------------------------------------------|
|-2---2---0-----2---2---0------------------------------------|
|-----------3-0-----------3-0-3---3---3-3-0-3---3---3-3-0----|

2:17 - Fig. 2 (4x)

2:44 (1x)
|-7----------11---9---7---6--7-9----------11---12---14--11------------------------|
|-----9-------------------------------------------------------14---12-------------|
|-----------------------------------------------------------------------10--------|
|---------------------------------------------------------------------------------|

|-12-------|
|----------|
|----------|
|----------|

2:58 - Fig. 1 (1x)

3:12 (1x)
|------------------|
|------------------|
|-2----------------|
|------------------|

Video Clip de Secrets


ACORDES PARA GUITARRA

PIANO UKELELE


TOP 20: Las más tocadas de The Cure


Toca una Canción al Azar de The Cure

Acordes

Cerrar

11.01

x

85