The Caterpillar (Acordes)

The Cure

Full Álbum: The Top (1984)
Subida por grillo2020

Compartir


Cambiar Cifrado
Americano Latino

Cambiar Tonalidad
-1 +1
Imprimir FAQ
+A
-A

Texto

Desplazamiento

Transportador

Color de Fondo

Archivos

TONALIDAD, TAMAÑO, CIFRADO, SCROL.

Nos renovamos: Ahora puedes cambiar TODO haciendo clic en ICONO de la Guitarra () que aparece en la parte inferior de esta página.


LETRA CON ACORDES

E|3-333-5--/7-7---|2-222-0-000-2---|3-333-5--/7-7---|----------------|
B|3-333-3--/5-5---|3-333-3-333-3---|3-333-3--/5-5---|7-777-5-555-7---|
G|----------------|2-222-2-222-2---|----------------|7-777-7-777-7---|
D|----------------|0-000-0-000-0---|----------------|7-777-7-777-7---|
A|----------------|----------------|----------------|5-555-5-555-5---|
E|----------------|----------------|----------------|----------------|

E|2-222-2-222-2-2-|2-222-2-222-2-2-|2-222-2-222-2-2-|2-222-2-222-2-2-|
B|2-222-2-222-2-2-|3-333-3-333-3-3-|2-222-2-222-2-2-|3-333-3-333-3-3-|
G|3-333-3-333-3-3-|4-444-4-444-4-4-|3-333-3-333-3-3-|4-444-4-444-4-4-|
D|4-444-4-444-4-4-|4-444-4-444-4-4-|4-444-4-444-4-4-|4-444-4-444-4-4-|
A|----------------|----------------|----------------|----------------|
E|----------------|----------------|----------------|----------------|

E|------------0---|----------------|------------0---|2---------------|
B|2-----3---------|0---------------|2-----3---------|----------------|
G|----------------|----------------|----------------|----------------|
D|----------------|----------------|----------------|----------------|
A|----------------|----------------|----------------|----------------|
E|----------------|----------------|----------------|----------------|

E|--------0-------|------0---------|
B|------0---0-----|----0-----0-----|
G|----3-------3---|--3---------3---|
D|--4-----------4-|--------------4-|
A|----------------|----------------|
E|3---------------|2---------------|

E|3-333-5--/7-7---|2-222-0-000-2---|
B|3-333-3--/8-8---|3-333-3-333-3---|
G|4-444-4--/7-7---|2-222-2-222-2---|
D|5-555-5--/9-9---|0-000-0-000-0---|
A|----------------|----------------|
E|----------------|----------------|

E|----3-5---557---|2-222-0-000-2---|3---------------|
B|----3-3---338---|3-333-3-333-3---|3---------------|
G|----4-4---447---|2-222-2-222-2---|----------------|
D|----5-5---559---|0-000-0-000-0---|----------------|
A|----------------|----------------|----------------|
E|----------------|----------------|----------------|

Video Clip de The Caterpillar


ACORDES PARA GUITARRA

PIANO UKELELE


TOP 20: Las más tocadas de The Cure


Toca una Canción al Azar de The Cure

Acordes

Cerrar

05.06

x

280