Trust (Acordes)

The Cure

Full Álbum: Wish (1992)
Subida por Galeo

Compartir


Cambiar Cifrado
Americano Latino

Cambiar Tonalidad
-1 +1
Imprimir FAQ
+A
-A

Texto

Desplazamiento

Transportador

Color de Fondo

Archivos

TONALIDAD, TAMAÑO, CIFRADO, SCROL.

Nos renovamos: Ahora puedes cambiar TODO haciendo clic en ICONO de la Guitarra () que aparece en la parte inferior de esta página.


LETRA CON ACORDES

        Bm                  D                  G       D
There's no-one left in the world that I can hold onto
There is really no-one left at all, there is only you
And if you leave me now, you leave all that we were undone
There is really no-one left, you are the only one

       F#m             G                  D                Bm
And still the hardest part for you to put your trust in me
       F#m             G                  D                A     
I love you more than I can say. Why won't you just believe?

TAB:

|---------------------|---------------------|------------------------
|---------------------|---------------------|------------------1-----
|--2---------------2--|----------3---2------|--2---3---2---3---------
|------3---0---3------|--0---3---3-------3--|------0-----------------
|----------0----------|----------1----------|------------------------
|---------------------|---------(1)---------|------------------------


                      x2
|---------------------|        |-----------------------------------|
|---------------------|        |------1----------------------------|
|--3---2---3---2------|        |----------3---2---3---2------------|
|----------0-------3--|        |--3-----------------------3---3----|
|---------------------|        |------1---------------5------------|
|---------------------|        |-----------------------------------|

|-------------------------------------|-----------------------------|
|-------------------------------------|------1----------------------|
|------2-----------2-------3----------|----------3---2---3---2------|
|--3-------3-----------3---3---3------|--3------------------3---3---|
|--------------3-----------5-------5--|------1---------------5------|
|-------------------------------------|-----------------------------|

|-------------------------------------------------------------------|
|-------------------------------------------------------------------|
|------2-----------0------------------------------------------------|
|--3-------3--------------------------------------------------------|
|--------------3----------------------------------------------------|
|-------------------------------------------------------------------|

Video Clip de Trust


ACORDES PARA GUITARRA

PIANO UKELELE
Bm
D
G
F#m
A


TOP 20: Las más tocadas de The Cure


Toca una Canción al Azar de The Cure

Acordes

Cerrar
Bm
D
G
F#m
A

11.45

x

148