Bang Bang (My Baby Shot Me Down)
The Raconteurs
Acordes

Subida por marianomartinez


Más Versiones
Ver. 2 Ver. 3 Ver. 4 Ver. 5 Ver. 6

Cambiar Cifrado
Americano Latino

Cambiar Tonalidad
-1 +1

Partir Pantalla Imprimir FAQ

+A
-A
Intro (x2)

e|-------------------------------------------------------------------------------------12--12---|
B|----------------------------------------------------------------------------------------------|
G|-16-------------16--14--12-------17-----------17--16---14--16b--16--14--12--11--9-------------|
D|-----14--17-----------------14--------14--17--------------------------------------------------|
A|----------------------------------------------------------------------------------------------|
E|----------------------------------------------------------------------------------------------|


Verso 1

e|-------------------------------------------------------------|
B|-------------------------------------------------------------|
G|-------------------------------------------------------------|
D|----9-------------8------------7-------------6---------------|
A|----9-------------8------------7-------------6---------------|
E|----7-------------6------------5-------------4---------------|

I was five and he was six, rode on horses made of sticks

e|---------------------------------------------------------------------------------------|
B|---------------------------------------------------------------------------------------|
G|---------------------------------------------------------------------------------------|
D|---5-----------------------------4-----------------------------------------------------|
A|---5-----------------------------4-----------------------------------------------------|
E|---3-----------------------------2-----------------------------------------------------|

He was black and I was white, he would always win the fight?

Refrão (Toque os acordes e deixe soar, na hora do slide, é só ir da sétima pra primeira casa e tirar o dedo pra fazer um pull off)

E E A
e|---------------------------------------------------------------------------------------|
B|---------------------------------------------------------------------------------------|
G|--------------1-------------------------------------1----------------------------------|
D|--------------2-------------------------------------2-------------------------7--------|
A|--------------2-------------------------------------2-------------------------7--------|
E|------------7/0-----------------------------------7/0-------------------------5--------|

Bang, Bang! You shot me down! Bang, Bang! I hit the ground! Bang, Bang?

e|----------------------------------------------------------------------------|
B|----------------------------------------------------------------------------|
G|----------------------------------------------------------------------------|
D|---7----------------------5-------5-----------------------------------------|
A|---7----------------------5-------5-----------------------------------------|
E|---5----------------------7-------7-----------------------------------------|

That awful sound, Bang Bang! My baby shot me down?



Riff Principal (x2)

e|-------------------------------------------------------------------------------------12--12---|
B|----------------------------------------------------------------------------------------------|
G|-16-------------16--14--12-------17-----------17--16---14--16b--16--14--12--11--9-------------|
D|-----14--17-----------------14--------14--17--------------------------------------------------|
A|----------------------------------------------------------------------------------------------|
E|----------------------------------------------------------------------------------------------|

Verso 2

Seasons came and changed the time
When I grew up I called him mine
He would always laugh and say
Remember when we used to play

Refrão

Riff Principal

Verso 3

Now he's gone and I don't know why
Sometimes I cry
He didn't even say goodbye
He didn't take the time to lie

Refrão

Outro

e|----------------------------------------------------------------------------------------------|
B|----------------------------------------------------------------------------------------------|
G|-16-------------16--14--12-------17-----------17--16---14--20b--20--20--18--16--14--16b-------|
D|-----14--17-----------------14--------14--17--------------------------------------------------|
A|----------------------------------------------------------------------------------------------|
E|----------------------------------------------------------------------------------------------|


Observações: Dá pra fazer bend em mais notas, é só sentir a música,
e grande parte dessas notas são feitas com Vibrato
procure no youtube o vídeo deles no festival de Leeds
mostra boa parte da guitarra, é claro que tem umas improvisações lá
que eu deixo pra quem se garante o suficiente pra isso.
Quem conhece a música original, saiba que o tom dessa é diferente,
não sei ao certo, mas eu diria que é meio tom abaixo.
Abraço a todos, espero que isso aí tenha alguma utilidade. =P

ACORDES PARA GUITARRA

PIANO UKELELE
E
A


COMENTARIOS

Aún no hay comentarios,

¡escribe el primero!

Escribe una pregunta, duda o comentario sobre esta canción, te responderemos a la brevedad.

Las más tocadas de The Raconteurs

Toca una Canción al Azar de The Raconteurs
E
A