Salute Your Solution
The Raconteurs
Acordes

Subida por tonino
Álbum: Consolers of the Lonely ( 2008)


Más Versiones
Ver. 2 Ver. 3 Ver. 4 Ver. 5 Ver. 6

Cambiar Cifrado
Americano Latino

Cambiar Tonalidad
-1 +1

Partir Pantalla Imprimir FAQ

+A
-A
Intro:
E|--------------|
B|--------------|
G|--x----x-x----|
D|--x----x-x----|
A|--x----x-x----|
E|--------------|

Riff 1: Brendan Benson
E|-----------------------------------------------|
B|-----------------------------------------------|
G|--9-9---7--------------------------------------|
D|--9-9---7--7--9-9--9---------------------------|
A|--7-7---5--7--9-9--9---------------------------|
E|-----------5--7-7--7---------------------------|

Riff 1: Jack White
E|--0-0---2--------------------------------------|
B|--0-0---3--2--4-4--4---------------------------|
G|--1-1---2--2--4-4--4---------------------------|
D|--2-2---0--2--4-4--4---------------------------|
A|--2-2------0--2-2--2---------------------------|
E|--0-0------------------------------------------|

Verso 1:
E|---------------------------------------------------------------------------|
B|---------------------------------------------------------------------------|
G|--9-9------------------9-9-----------9-9-----------------------------------|
D|--9-9------------------9-9-----------9-9-----------------------------------|
A|--7-7------------------7-7-----------7-7-----------------------------------|
E|---------------------------------------------------------------------------|

E|---------------------------------------------------------------------------|
B|---------------------------------------------------------------------------|
G|--7-7--9-9--------7-7--9-9---------7-7--9-9--------7-7---------------------|
D|--7-7--9-9--------7-7--9-9---------7-7--9-9--------7-7---------------------|
A|--5-5--7-7--------5-5--7-7---------5-5--7-7--------5-5---------------------|
E|---------------------------------------------------------------------------|

(Refrão)

(Riff 1)

(Verso 2)

Keyboard Solo:
E|-----------------------------------------------------------------------------|
B|-----------------------------------------------------------------------------|
G|-----------------------------------------------------------------------------|
D|--2~---------------------2~--------------------2----------------------2~-----|
A|--2~---------------------2~--------------------2----------------------2~-----|
E|--0~---------------------0~--------------------0----------------------0~-----|

Outro:
E|---------------------------------------------------------------------------|
B|---------------------------------------------------------------------------|
G|------------------------0h1-------0h1--------------------------------------|
D|-----------------0--0h2-----2~---------2--0h2------------------------------|
A|----------0--0h2------------------------------2--0h2-----------------------|
E|-0---0h3----------------------------------------------3b4--0~--------------|

Brendan Benson:
E|-----------------------|----------------------------------------------------|
B|-----------------------|----------------------------------------------------|
G|--9-9----------7--7----|--------9-------------------------------------------|
D|--9-9--5--7--9-7--7----|--------9-------------------------------------------|
A|--7-7--5--7--9-5--5----|--------7-------------------------------------------|
E|-------3--5--7---------|----------------------------------------------------|

Jack White:
E|--0-0----------2--2----|---------0-----------------------------------------------|
B|--0-0--0--2--4-3--3----|---------0-----------------------------------------------|
G|--1-1--0--2--4-2--2----|---------1-----------------------------------------------|
D|--2-2--0--2--4-0--0----|---------2-----------------------------------------------|
A|--2-2--x--0--2---------|---------2-----------------------------------------------|
E|--0-0--3---------------|---------0-----------------------------------------------|




ACORDES PARA GUITARRA

PIANO UKELELE


COMENTARIOS

Aún no hay comentarios,

¡escribe el primero!

Escribe una pregunta, duda o comentario sobre esta canción, te responderemos a la brevedad.

Las más tocadas de The Raconteurs

Toca una Canción al Azar de The Raconteurs