Consoler Of The Lonely
The Raconteurs
Acordes

Subida por Anto1
Álbum: Consolers of the Lonely ( 2008)


Más Versiones
Ver. 2 Ver. 3 Ver. 4 Ver. 5 Ver. 6

Cambiar Cifrado
Americano Latino

Cambiar Tonalidad
-1 +1

Partir Pantalla Imprimir FAQ

+A
-A


Ver solo la LETRA
   (A)
E|---------------------------------------------------------------------|
B|---------------------------------------------------------------------|
G|--------3----3p2p0----------x-x-x-3p2----------x-x-x-3p2-x-x-x-3p2---|
D|---------------------------------------------------------------------|
A|---------------------------------------------------------------------|
E|--1s3----------------1s3-----------------1s3-------------------------|
(B) (C)
E|---------------------------------------------------------------------|
B|---------------------------------------------------------------------|
G|-x-x-x-3p2p0-------------------------------------------Enter Vocals--|
D|----------------------------5----3-5--------5----3-5--------5----3-5-|
A|----------------------------5----3-5--------5----3-5--------5----3-5-|
E|-----------------1s3--------3----1-3--------3----1-3--------3----1-3-|

E|---------------------------------------------------------------------|
B|---------------------------------------------------------------------|
G|----------------5----3-5------5----3-5-----3--2----------------------|
D|-5----3-5-------5----3-5------5----3-5-----3--2---5--4------5----3-5-|
A|-5----3-5-------3----1-3------3----1-3-----1--0---5--4------5----3-5-|
E|-3----1-3-----------------------------------------3--2------3----1-3-|
(D)
E|---------------------------------------------------------------------|
B|---------------------------------------------------------------------|
G|-------------------7-(deixe----------10-(deixe------5-(deixe---------|
D|--5----3-5---------7-----soar)-------10-----soar)---5---soar)--------|
A|--5----3-5---------5------------------8-------------3----------------|
E|--3----1-3-----------------------------------------------------------|

Repete D (1x)
Repete A (3x)
Repete C (1x)
Repete D (1x)


Solo:

(E)
E|------------------------------------------------------------------------------------|
B|------------------------------------------------------------------------------------|
G|------------------------------------------------------------------------------------|
D|------------------------------------------------------------------------------------|
A|------------------------------------------------------------------------------------|
E|-1p3333333-1p3333333-1p3333333-1p33333333-1p33333333-1p33333333-1p33333333----------|

(F)
E|--------------------6------6---------------------------6------6---------------------------6------6--------------|
B|-6p8--6p8--6p8--6p8----6p8----------6p8--6p8--6p8--6p8----6p8----------6p8--6p8--6p8--6p8----6p8----------------|
G|----------------------------------------------------------------------------------------------------------------|
D|----------------------------------------------------------------------------------------------------------------|
A|----------------------------------------------------------------------------------------------------------------|
E|----------------------------------------------------------------------------------------------------------------|

E|-----------------------------------6------6----|
B|-6p8-6p8---6p8-6p8---6p8-6p8---6p8----6p8------|
G|-----------------------------------------------|
D|-----------------------------------------------|
A|-----------------------------------------------|
E|-----------------------------------------------|

E|-----------------------------------6------6------6------6|
B|-6p8-6p8---6p8-6p8---6p8-6p8---6p8----6p8----6p8----6p8--|
G|---------------------------------------------------------|
D|---------------------------------------------------------|
A|---------------------------------------------------------|
E|---------------------------------------------------------|

E|------------------------------------------------------------------------------------|
B|------------------------------------------------------------------------------------|
G|------------------------------------------------------------------------------------|
D|------------------------------------------------------------------------------------|
A|------------------------------------------------------------------------------------|
E|-1p3333333-1p3333333-1p3333333-1p33333333-1p33333333-1p33333333-1p33333333----------|

E|-----6-----6-----6-----6---------------|
B|-8-8---8-8---8-8---8-8----6p8----------|
G|---------------------------------------|
D|---------------------------------------|
A|---------------------------------------|
E|---------------------------------------|

(Repete a intro 1 vez no fade out)

ACORDES PARA GUITARRA

PIANO UKELELE


COMENTARIOS

Aún no hay comentarios,

¡escribe el primero!

Escribe una pregunta, duda o comentario sobre esta canción, te responderemos a la brevedad.

Las más tocadas de The Raconteurs

Toca una Canción al Azar de The Raconteurs