Headin For Texas (Acordes)

The Raconteurs

Subida por Permar

Compartir


Imprimir FAQ
+A
-A

Texto

Desplazamiento

Transportador

Color de Fondo

Archivos

-A
+A

Intro/Riff (Guitar 1)
   E5             G5     A5
|------------------------------|
|------------------------------|
|------------------------------|
|--2---2----------5--5---7--7--|
|--2---2----------5--5---7--7--|
|--0---0--(0)-(0)-3--3---5--5--|

(Guitar 2)
   E              G      A
|--0---0----------3--3---0--0--|
|--0---0----------0--0---2--2--|
|--1---1----------0--0---2--2--|
|--2---2----------0--0---2--2--|
|--2---2----------2--2---0--0--|
|--0---0--(0)-(0)-3--3---0--0--|

HERRAMIENTAS ACORDESWEB:


LETRA DE LA CANCIÓN:

Ver la letra sola (sin acordes)

OTRAS VERSIONES DE LA MISMA CANCIÓN:

Ver. 2 Ver. 3 Ver. 4 Ver. 5 Ver. 6

DESCARGAR PDF / IMPRIMIR CANCIÓN



ACORDES PARA GUITARRA

PIANO UKELELE
E5
G5
A5
E
G
A


TOP 20: Las más tocadas de The Raconteurs


Acordes

Cerrar
E5
G5
A5
E
G
A

07.53


109