Hey Gyp (Dig The Slowness) (Acordes)

The Raconteurs

Subida por Donlimon

Compartir


Imprimir FAQ
+A
-A

Texto

Desplazamiento

Transportador

Color de Fondo

Archivos

-A
+A
I'll buy you a Chevrolet
I'll buy you a Chevrolet
I'll buy you a Chevrolet
If you just give me some of your love, girl
Just give me some of your love
Just give me some of your love, babe
Just give me some of your love

G5  F5 )

      G5                F5 
I'll buy you a diamond ring
      G5                F5 
I'll buy you a diamond ring
G5              F5 
I'll buy you a diamond ring
        G5                              F5
If you just give me some of your love, girl
 G5                              F5
Just give me some of your love, babe
 G5                              F5
Just give me some of your love, girl
 G5                              F5
Just give me some of your love

      G5                F5
I'll buy you a Cadillac
      G5                F5
I'll buy you a Cadillac
G5                   F5
I'll buy you a Cadillac
        G5                              F5
If you just give me some of your love, girl
 G5                              F5
Just give me some of your love
 G5                              F5
Just give me some of your love, babe
 G5                              F5
Just give me some of your love

E|----------------------------------------------------|
B|----------------------------------------------------|
G|----15----17b19r17--------15----15------------------|
D|-17----17-----------17-17----17----17-15------------|
A|----------------------------------------------------|
E|----------------------------------------------------|

E|----------------------------------------------------|
B|-------------------------20-18-20-18-20-18-18/20----|
G|-------15----15-17b19r17----------------------------|
D|-17-17----17----------------------------------------|
A|----------------------------------------------------|
E|----------------------------------------------------|

E|----------------------------------------------------|
B|----------------------------------------------------|
G|--------15----15-17b19r17---------15----15----------|
D|--17-17----17--------------17-17-----17----17-15----|
A|----------------------------------------------------|
E|----------------------------------------------------|

E|----------------------------------------------------|
B|------------15--15----------------------------------|
G|-------15-17--17--17-17p15--17-19p17-15-17p15-------|
D|-17-17--------------------17------------------17-17-|
A|----------------------------------------------------|
E|----------------------------------------------------|

I'll buy you a sugar cube
I'll buy you a sugar cube
I'll buy you a sugar cube
If you just give me some of your love, man
Just give me some of your love
Just give me some of your love, girl
If you just give me some of your love

G5  F5  G5 )

HERRAMIENTAS ACORDESWEB:


LETRA DE LA CANCIÓN:

Ver la letra sola (sin acordes)

OTRAS VERSIONES DE LA MISMA CANCIÓN:

Ver. 2 Ver. 3 Ver. 4 Ver. 5 Ver. 6

DESCARGAR PDF / IMPRIMIR CANCIÓN



ACORDES PARA GUITARRA

PIANO UKELELE
G5
F5


TOP 20: Las más tocadas de The Raconteurs


Acordes

Cerrar
G5
F5

08.06


125