Old Enough
The Raconteurs
Acordes

Subida por Monyk
Álbum: Consolers of the Lonely ( 2008)


Más Versiones
Ver. 2 Ver. 3 Ver. 4 Ver. 5 Ver. 6

Cambiar Cifrado
Americano Latino

Cambiar Tonalidad
-1 +1

Partir Pantalla Imprimir FAQ

+A
-A
(riff 1)               
D
E|-----------------------2------|
B|-----------------------3------|
G|-----------------------2-----|
D|-3-2-------------------0---|
A|------3p2h3----2p3h2---|
E|---------------------3--------|

D C2 G
You look pretty in your fancy dress
D C2 G
But I detect unhappiness
D C2 G
You never speak so I have to guess
(F F C Em/D C G D) D C2 G (4x)
You're not free (Or riff 1)

D C2 G
Yeah, maybe when you're old enough
D C2 G
You'll realize you're not so tough
D C2 G
And some days as the seas get rough
(F F C Em/D C G D) D C2 G (2x)
And you'll see (Or riff 1)

D C2 G
You're too young to have it figured out
D C2 G
You think you know what you're talking about
D C2 G
You think it all will work itself out
(F F C Em/D C G D) D C2 G (2x)
But we'll see (Or riff 1)

F C
When I was young I thought I knew
F C
You probably think you know too
D G
Do you?
D G
Well do you?

F C
I was naïve just like you, I thought
F C
I knew exactly what I wanted to do
D G D
Well, what's you gonna do?

G
What a fool

D C2 G
And how have you gotten by so far
D C2 G
Without having a visible scar?
D C2 G
No one knows who you really are
(F F C Em/D C G D) D C2 G (2x)
They can't see (or riff 1)

(solo 1)

(riff 2 e 3 - 2x)

(riff 2)
E|----------------------------------------|
B|----------------------------------------|
G|-7-5--4-2-0---4-2-0--4--2-0----|
D|---------------------------------------|
A|---------------------------------------|
E|---------------------------------------|

(riff 3)
E|--------------------------------------------------------|
B|--------------------------------------------------------|
G|-7-5--4-2-0---2-4-2-0----2-4-2-0--4--2-0---|
D|-------------------------------------------------------|
A|--------------------------------------------------------|
E|-------------------------------------------------------|

D D
What you gonna do (What you gonna do)
C G F
What you gonna do now
D D
What you gonna do (What you gonna do)
C G F
What you gonna do now
D D
What you gonna do (What you gonna do)
C G F
What you gonna do now
D D
What you gonna do (What you gonna do)
C
What you gonna do now
G//
What you gonna do now

(Yeah) D C2 G (4x)

F C
The only way you'll ever learn a thing
F C D G
Is to admit that you know absolutely nothing
D G
Oh, nothing

F C
Think about this carefully
F C D G
You might not get another chance to speak freely
D G
Oh, freely

D C G
Baby when you're old enough
D C G
Maybe when you're old enough
D C G
Baby when you're old enough
D C G
You're not free

(Yeah)
D C G
You're not free

ACORDES PARA GUITARRA

PIANO UKELELE
D
C2
G
F
C
Em/D


COMENTARIOS

Aún no hay comentarios,

¡escribe el primero!

Escribe una pregunta, duda o comentario sobre esta canción, te responderemos a la brevedad.

Las más tocadas de The Raconteurs

Toca una Canción al Azar de The Raconteurs
D
C2
G
F
C
Em/D