Intension
Tool
Acordes

Subida por Wendy123
Álbum: 10,000 Days ( 2006)


Más Versiones
Ver. 2

Cambiar Cifrado
Americano Latino

Cambiar Tonalidad
-1 +1

Partir Pantalla Imprimir FAQ

+A
-A


Ver solo la LETRA
its not 100% accurate, (some of the harmonics might be off) but I think its fairly close

/ - slide
(7)- harmonic

the slides are slow (listen to the song to get the timing)

(1:15)

|----------------| 7x
|----------------|
|----------------|
|-5/10--5/9--2/7-|

|------------|
|------------|
|------------|
|--5/10--10--|

(1:48) let the harmonics ring
|------------------------------------|
|---------(7)----(7)-----------(7)---|
|----(5)---------------(7)-----------|
|--7-----5----/10----5------/9----2--|

|-------------------------------(5)----|
|---------(7)----(7)---(7)-------------|
|----(5)---------------------(5)---(5)-|
|--7-----5----/10----5-----7-----------|

|------------------------------------|
|---------(7)----(7)-----------(7)---|
|----(5)---------------(7)-----------|
|--7-----5----/10----5------/9----2--|

|-----------------(5)--------|
|---------(7)-----------(5)--|
|----(5)-------/3---(5)------|
|--7-----5-------------------|

(2:06)
|------------------------------------| 3x
|---------(7)----(7)-----------(7)---|
|----(5)---------------(7)-----------|
|--7-----5----/10----5------/9----2--|

|-------------------------------(5)----|
|---------(7)----(7)---(7)-------------|
|----(5)---------------------(5)---(5)-|
|--7-----5----/10----5-----7-----------|

|------------------------------------| 3x
|---------(7)----(7)-----------(7)---|
|----(5)---------------(7)-----------|
|--7-----5----/10----5------/9----2--|

|-------------------------------(5)----|
|---------(7)----(7)---(7)-------------|
|----(5)---------------------(5)---(5)-|
|--7-----5----/10----5-----7-----------|

I haven't figured out the other riffs yet

ACORDES PARA GUITARRA

PIANO UKELELE


COMENTARIOS

Aún no hay comentarios,

¡escribe el primero!

Escribe una pregunta, duda o comentario sobre esta canción, te responderemos a la brevedad.

Las más tocadas de Tool

Toca una Canción al Azar de Tool