Undertow
Tool
Acordes

Subida por fxpiquer
Álbum: Undertow ( 1993)



Cambiar Cifrado
Americano Latino

Cambiar Tonalidad
-1 +1

Partir Pantalla Imprimir FAQ

+A
-A


Ver solo la LETRA
INTRO
AFTER GUITAR SOLO

G------------------------------------------|
D------------------------------------------|
A------------------------------------------|
D-6-8-10-00--6-8-10-00-6-8-10-00-6-8-10-00-|
verse 1+2
G----------------------------------------------|
D----------------------------------------------|
A------------65----66555------------65-66555---| x2
D--67-0-10-0--------------67-0-10-0------------|
pre chorus
G-------------------|
D-------------------|
A-------------------|
D--2b--------2bigb--|
chorus
G----------------------|
D-----2----------------|
A-----------3----------|
D--2---------------5---|
INTERLUDE
G---------------------------------------------|
D---------------------------------------------|
A---------------------------------------------|
D-5-00-3-00-5-00-2-0-6-0-5-00-3-00------------|

ACORDES PARA GUITARRA

PIANO UKELELE


COMENTARIOS

Aún no hay comentarios,

¡escribe el primero!

Escribe una pregunta, duda o comentario sobre esta canción, te responderemos a la brevedad.

Las más tocadas de Tool

Toca una Canción al Azar de Tool