Pushit
Tool
Acordes

Subida por Ramiroalvis
Álbum: Ænima ( 1996)



HERRAMIENTAS

Cambiar Cifrado
Americano Latino

Cambiar Tonalidad
-1 +1

Partir Pantalla Imprimir FAQ

Ver solo la LETRA

+A
-A
LETRA CON ACORDES

¿Tu Guitarra esta Afinada? PRUEBA NUESTRO NUEVO AFINADOR

Tunging:
Low to High (DADGBe)

~: let ring
: slide down
/: slide up
h: hammer-on
p: pull-off

E|-----|                 ---------------------------------------------|
B|-----| Tremolo this    ---------------------------------------------|
G|-----| note over the   -2----2/3--3---3/5---5-5-5---2/3-3p0--3-3p2--|
D|-0---| rest of this    ---------------------------------------------|
A|-----| until noted     ---------------------------------------------|
D|-----|                 ---------------------------------------------|

----------------------------------------------------------------------|
----------------------------------------------------------------------|
-5/7--7----9h10-13p10-9h10-9h10-13--10--9---75--5/7-----2/3--5-3p0---|
----------------------------------------------------------------------|
----------------------------------------------------------------------|
----------------------------------------------------------------------|

End of Tremolo                       x4             |"Disappear..."
--------------|------------------------|------------------------------|
--------------|------------------------|------------------------------|
-3--2----2--0-|---2----2----2-----2----|---2----2----2------2----2----|
--------------|-0----3----5---------5--|-0----3----5----------5----5--|
--------------|----------------3-------|----------------3-------3----3|
--------------|------------------------|------------------------------|
                                Riff 1a                        Riff 1b

2:00                                 x8 2:51 "Pushed away my dear"  x4
---------------------------------------|------------------------------|
---------------------------------------|------------------------------|
---2---2------2---2------2---2----2----|------------------------------|
-0---0---0--3---3---3--5---5---5----5--|--7---73---3--3--3/5---5---|
---------------------------------3----3|--7---73---3--3--3/5---5---|
---------------------------------------|--7---73---3--3--3/5---5---|
                                Riff 1c                         Riff 2

E|-----------------|                 D|---------|
B|-3---3---3---3---|Some guitar fill A|---------|Bass fill
G|---2-------2-----|                 D|--10/9---|

                                     x2
---------------------------------------|------------------------------|
---------------------------------------|------------------------------|
---2---2------2---2------2---2----2----|------------------------------|
-0---0---0--3---3---3--5---5---5----5--|------------------------------|
---------------------------------3----3|------------------------------|
---------------------------------------|------------------------------|

-----------------------------------------------------------------------|
-----------------------------------------------------------------------|
---2---2------2---2------4---4-----4---4------2---2------2---2------2--|
-0---0---0--3---3---3--5---5---5-----5------0---0---0--3---3---3--5----|
---------------------------------3-------------------------------------|
-----------------------------------------------------------------------|

                    "I will choke until I swallow..."
-------------------|---------------------------------------------------|
-------------------|---------------------------------------------------|
---2---2-----------|---------------------------------------------------|
-5---5---5---------|---------------------------------------------------|
-----------3-------|---------------------------------------------------|
-------------------|---------------------------------------------------|
            Riff 1d

At 6:07, starts playing the regular riff, but the guitar keeps going
with Riff 2 until 6:33.
Hope you enjoy this, because I sure do.////////////////// ¿Te Animas? Sube una canción a este sitio. //////////////////

ACORDES PARA GUITARRA

PIANO UKELELE


COMENTARIOS

Aún no hay comentarios,

¡escribe el primero!

Escribe una pregunta, duda o comentario sobre esta canción, te responderemos a la brevedad.

Las canciones más tocadas de Tool

Toca una Canción al Azar de Tool

16.06


Nuestro servidor se demoró 0.19 segundos en generar esta página. Eso fue realmente muy rápido!