Part of Me
Tool
Acordes

Subida por cristibaciu



HERRAMIENTAS

Cambiar Cifrado
Americano Latino

Cambiar Tonalidad
-1 +1

Partir Pantalla Imprimir FAQ

Ver solo la LETRA

+A
-A
LETRA CON ACORDES

¿Tu Guitarra esta Afinada? PRUEBA NUESTRO NUEVO AFINADOR


Intro (:19)
G------------------------------------------------------------------------|
D--5-5-5-4-4-4-2-0-------------------------------------------------------|
A------------------------------3-----3-----------------------------------|
D------------------2-x-x-2-x-x---x-x---x-x-2-x-x-2-x-x-5-5-5-4-4-4-2-0---|

Intro part 2
G--------------------------------------------------------|
D--------------------------------------------------------|
A-------------3-----3------------------------------------|
D-2-x-x-2-x-x---x-x---x-x-2-x-x-2-x-x----5-5-5-4-4-4-2-0-|


(0:32)
G-------------------------------|
D-------------------------------| x4
A-------------------------------|
D--0-6-5-0-3--0-6-5-0-3--3--3---|


G---------------------------------|
D---------------------------------|
A---------3---------3-------------|
D--0-2--0----0-2--0----0-2--10---|


(0:46)
G-------------------------------|
D-------------------------------| x2
A-------------------------------|
D--0-6-5-0-3--0-6-5-0-3--3--3---|


G---------------------------------|
D------------------------------6--|  x2
A----6-5---8----6-5---8--6--5-----|
D--0-----0----0-----0-------------|


(1:10)
G---------------------------------------|
D-------------------------------------3-|
A---------------------------------------|
D--0-6-5-0-3--0-6-5-0-3--3-3-3-3-3------|

(1:15)
G--------------------|
D--------------------| listen for how many times he plays it
A--------------------|
D--0-0-0-0-0-0-0-0-0-|
    x x x x x x x x x

(1:32)
G--------------------------------------------------------|
D--------------------------------------------------------|
A--------------3-----3-----------------------------------|
D--2-x-x-2-x-x---x-x---x-x-2-x-x-2-x-x-5-5-5-4-4-4-2-0---|

                                                      x2
G--------------------------------------------------------|
D----------------------------------------5-5-5-4-4-4-2-0-|
A-------------3-----3------------------------------------|
D-2-x-x-2-x-x---x-x---x-x-2-x-x-2-x-x--------------------|


(1:55)
G---------------------------------|
D---------------------------------| x6
A---------------------------------|
D --0-6-5-0-3--0-6-5-0-3--3--3----|

G-----------------------------|
D-----------------------------|
A---------3---------3------3--|
D--0-2--0----0-2--0----0-2----|


play that all the way through then repeat it


(2:35)
G-------------------------------|
D-------------------------------| x6
A-------------------------------|
D--0-6-5-0-3--0-6-5-0-3--3--3---|

G---------------------------------|
D------------------------------6--| x2
A----6-5---8----6-5---8--6--5-----|
D--0-----0----0-----0-------------|


G-------------------------------|
D-------------------------------| x2
A-------------------------------|
D--0-6-5-0-3--0-6-5-0-3--3--3---|


G---------------------------------|
D------------------------------6--| x2
A----6-5---8----6-5---8--6--5-----|
D--0-----0----0-----0-------------|


(3:09)
G---------------------------------|
D---------------------------------|
A---------------------------------|
D--0-6-5-0-3--0-6-5-0-3--3--3--3--|////////////////// ¿Te Animas? Sube una canción a este sitio. //////////////////

ACORDES PARA GUITARRA

PIANO UKELELE


COMENTARIOS

Aún no hay comentarios,

¡escribe el primero!

Escribe una pregunta, duda o comentario sobre esta canción, te responderemos a la brevedad.

Las canciones más tocadas de Tool

Toca una Canción al Azar de Tool

16.07


Nuestro servidor se demoró 0.01 segundos en generar esta página. Eso fue realmente muy rápido!