Bem, Aqui (Acordes)

Vowe

Subida por Therealcarmencita

Compartir


Cambiar Cifrado
Americano Latino

Cambiar Tonalidad
-1 +1
Imprimir FAQ

Para cambio de tonalidad, zoom, cambio de cifrado, haz clic en este botón


CONSEJO:

Afina tu guitarra antes de tocar. Prueba nuestro afinador en linea.

+A
-A

Texto

Desplazamiento

Transportador

Color de Fondo

Archivos

TONALIDAD, TAMAÑO, CIFRADO, SCROL.

Nos renovamos: Ahora puedes cambiar TODO haciendo clic en ICONO de la Guitarra () que aparece en la parte inferior de esta página.


LETRA CON ACORDES

Intro:

E|------------------------------------------------------------|
B|-----------5-------------5-------------5------------5-------|
G|-------0-----7-------0-----7-------0-----7------0-----7-----|  (2x)
D|-----4---4---------4---4---------4---4--------4---4---------|
A|---5-------------5------------------------------------------|
E|-------------------------------3------------3---------------|

D                    G
Nunca sei a hora certa de voltar
D                       G
Mas não esconda o sorriso e vou lembrar
D                      G
E o que vem depois eu já nem sei dizer
D                   G
Nesse jogo incerto não tem como saber
B           F#  E D G
E se eu sei quem é você  se realmente sei
B      F# E  D  G
Me traz o que sonhei

        D
Eu quero ir além
        G              B
Quero olhar o céu só pra poder dizer
         G
Eu quero estar aqui
           D       G
Eu quero ir além só pra poder dizer
             B       G  D
Tudo vai ficar bem  só quero estar aqui
                 (3x)
E|-------------------|----------------|
B|-------------------|----------------|
G|------------6-6-7--|---------7(*)---|
D|-------------------|----------------|
A|---5-5-5-5---------|-5-5-5-5--------|
E|-------------------|----------------|

D                         G
E o que eu sei de nós não devia ser
D                    G
Só mais um erro comum  mais uma voz pra lembrar
B           F#  E D G
E se eu sei quem é você  se realmente sei
B      F# E  D  G
Me traz o que sonhei

Eu quero ir além
        G            B
Quero olhar o céu só pra poder dizer
         G
Eu quero estar aqui
           D         G
Eu quero ir além só pra poder dizer
             B      G    D
Tudo vai ficar bem  só quero estar aqui

Interludio: B F# E G
            B F# G

        E
Eu quero ir além
        G         B
Quero olhar o céu só pra poder dizer
         G
Eu quero estar aqui
           D           G
Eu quero ir além só pra poder dizer
             B        G    D
Tudo vai ficar bem  só quero estar aqui

Video Clip de Bem, Aqui


ACORDES PARA GUITARRA

PIANO UKELELE
D
G
B
F#
E


TOP 20: Las más tocadas de Vowe


Toca una Canción al Azar de Vowe

Acordes

Cerrar
D
G
B
F#
E

01.47


132