É Só o Começo (Acordes)

Vowe

Subida por SEBAST19N

Compartir


Cambiar Cifrado
Americano Latino

Cambiar Tonalidad
-1 +1
Imprimir FAQ

Para cambio de tonalidad, zoom, cambio de cifrado, haz clic en este botón


CONSEJO:

Afina tu guitarra antes de tocar. Prueba nuestro afinador en linea.

+A
-A

Texto

Desplazamiento

Transportador

Color de Fondo

Archivos

TONALIDAD, TAMAÑO, CIFRADO, SCROL.

Nos renovamos: Ahora puedes cambiar TODO haciendo clic en ICONO de la Guitarra () que aparece en la parte inferior de esta página.


LETRA CON ACORDES

(riff 1)

e|---------------------------------------------------
b|-----------1412/14-----------14-12-14----14-12-10-
G|-~~~11---11-----------11~~-------------------------    2x
d|---------------------------------------------------
a|---------------------------------------------------
e|---------------------------------------------------

(riff 2)
e|-------------------------
b|--------------12/14------
G|-11-11--14-14-------11~~- 2x
d|-------------------------
a|-------------------------
e|-------------------------

  F#m                                  D C# A   B
Sinto o chão mas eu não sinto as pernas
  F#m                                 D C# A B
E eu acho que ela ignorou o meu olhar
  F#m                            D C# A B
Mas quem sou eu pra dizer se vou
  F#m                         D C# A
Conquistar alguém nesse lugar

(uôô)
F#m
e a noite começou (Uôô)
A
Trás mais um drink então
D
Pra quem não durmiu
É só o começo

(acompanha riff 2)
(uôô)
F#m
Fugir da solidão
A
Sem ter os pés no chão
D
Se você me ouviu
 E       Fm (na 8ª)
É só o começo

(riff 1)

  F#m                           D C# A   B
O mundo gira e dessa vez eu sinto
  F#m                             D C# A B
Não tenho ritmo mas sei como dançar
  F#m                           D C# A B
Mas quem sou eu pra dizer se vou
  F#m                         D C# A
Conquistar alguém nesse lugar

                     D
e eu já nem sei quem eu sou (eu sou)
                 E (na 7ª) F (na 8ª)
Antes do sol eu não vou (não vou)

(uôô)
F#m
E a noite começou (Uôô)
A
Trás mais um drink então
D
Pra quem não durmiu
É só o começo

(acompanha riff 2)
(uôô)
F#m
Fugir da solidão
A
Sem ter os pés no chão
D
Se você me ouviu
 E       Fm (na 8ª)
É só o começo

(solo)
e|------------------------------------
b|------------------------------------
g|--11^^^--14^^^^--11^^^--14^^^^17^^^-
d|------------------------------------
a|------------------------------------
e|------------------------------------

 F#m
Venha ser
 A
O que deseja ver
 D
Como se essa noite fosse a última
 F#m
Sem se arrepender
 A
Ou deixar de fazer
 D
Como se sinta vivo
E eu me sinto vivo...

É só o começo

(uôô)
F#m
e a noite começou (Uôô)
A
Trás mais um drink então
D
Pra quem não durmiu
É só o começo

(acompanha riff 2)
(uôô)
F#m
Fugir da solidão
A
Sem ter os pés no chão
D
Se você me ouviu
 E       Fm (na 8ª)
É só o começo

Video Clip de É Só o Começo


ACORDES PARA GUITARRA

PIANO UKELELE
F#m
D
C#
A
B


TOP 20: Las más tocadas de Vowe


Toca una Canción al Azar de Vowe

Acordes

Cerrar
F#m
D
C#
A
B

19.13


108