Sem Medo de Errar (Acordes)

Vowe

Subida por cirimini

Compartir


Cambiar Cifrado
Americano Latino

Cambiar Tonalidad
-1 +1
Imprimir FAQ

Para cambio de tonalidad, zoom, cambio de cifrado, haz clic en este botón


CONSEJO:

Afina tu guitarra antes de tocar. Prueba nuestro afinador en linea.

+A
-A

Texto

Desplazamiento

Transportador

Color de Fondo

Archivos

TONALIDAD, TAMAÑO, CIFRADO, SCROL.

Nos renovamos: Ahora puedes cambiar TODO haciendo clic en ICONO de la Guitarra () que aparece en la parte inferior de esta página.


LETRA CON ACORDES

Intro

Riff 1
E|---------------------------------------------------------------------------------0----0---0----0-----0---|
B|-------------------------------0---0----0----0----0-----0-----0----0----0----0---------------------------|
G|-----0----0----0----0----0-------------------------------------------------------------------------------|
D|---7----7----7----7----7-----7----7----7----7----7-----7----7----7----7----7----7----7----7----7----7----| 2x
A|-7----7----7----7----7-------------------------------8----8----8----8----8----3----3----3----3----3------|
E|----------------------------3----3----3----3----3--------------------------------------------------------|

Riff 1
Em       G
Dentro do seu olhar,
F             C
Eu vejo um céu e o sol nascer,
Em      G       F       C
Luzes vão me guiar iluminando o meu caminho,

Riff 2
E|---------------------------------------------------------------------------------------------------------|
B|---------------------------------------------------------------------------------------------------------|
G|-----0----0----0----0----0----0----0----0----0----0--------0----0----0----0----0----0----0----0----0----0|
D|---7----7----7----7----7-----7----7----7----7----7-------7----7----7----7----7----7----7----7----7----7--| 2x
A|-7----7----7----7----7---------------------------------5----5----5----5----5----3----3----3----3----3----|
E|----------------------------3----3----3----3----3--------------------------------------------------------|

(Riff 2)
Em      G       D       C
Somos só nós dois guiando nosso amor,
Em      G       D
Somos só nós dois buscando nossa direção,


REFRÃO
Em      C               G
Eu deixo amanhecer e um novo dia chegar
         D
E volto ao meu lugar, nosso lugar...
Em      C               G
Me deixo enlouquecer, e me perco no seu olhar
        D
Hoje vivo assim, sem medo de errar.

Riff 3
E|-------------------------------------------------------|
B|-------------------------------------------------------|
G|-5-5-5-7-7-7-9-9-9-12-12-12-5-5-5-7-7-7-9-9-9-12-12-12-|
D|-x-x-x-x-x-x-x-x-x-xx-xx-xx-x-x-x-x-x-x-x-x-x-xx-xx-xx-|
A|-3-3-3-5-5-5-7-7-7-10-10-10-3-3-3-5-5-5-7-7-7-10-10-10-|
E  |------------------------------------------------------|

E5       G5
Dentro do seu olhar,
D5            C5
O horizonte é pouco pra nós
E5      G5      D5      C5
Uma vida inteira pra seguir e dividir as coisas boas


Riff 2
E|--------------------------------------------------------------------------------------------------------|
B|--------------------------------------------------------------------------------------------------------|
G|-----0----0----0----0----0----0----0----0----0----0----0----0----0----0----0----0----0----0----0----0---|
D|---7----7----7----7----7----7----7----7----7----7----7----7----7----7----7----7----7----7----7----7-----| 2x
A|-7----7----7----7----7------------------------------5----5----5----5----5----3----3----3----3----3------|
E|--------------------------3----3----3----3----3---------------------------------------------------------|



(Riff 2)
Em      G       D       C
Somos só nós dois guiando nosso amor,
Em      G       D
Somos só nós dois buscando nossa direção,


REFRÃO
Em      C               G
Eu deixo amanhecer e um novo dia chegar
         D
E volto ao meu lugar, nosso lugar...
Em      C               G
Me deixo enlouquecer, e me perco no seu olhar
        D
Hoje vivo assim, sem medo de errar.

Riff 3
E|-------------------------------------------------------|
B|-------------------------------------------------------|
G|-5-5-5-7-7-7-9-9-9-12-12-12-5-5-5-7-7-7-9-9-9-12-12-12-|
D|-x-x-x-x-x-x-x-x-x-xx-xx-xx-x-x-x-x-x-x-x-x-x-xx-xx-xx-|      2x
A|-3-3-3-5-5-5-7-7-7-10-10-10-3-3-3-5-5-5-7-7-7-10-10-10-|
E  |------------------------------------------------------|

(Solo (G        D)+ Riff 3) 2x

C                 D             Em
E as tempestades vêm pra nos ensinar
                G
Que o final é só quando desistimos
C       D
Tempestades vêm...

(Só violão) Riff 1

Em      C               G
Eu deixo amanhecer e um novo dia chegar
         D
E volto ao meu lugar, nosso lugar...
Em      C               G
Me deixo enlouquecer, e me perco no seu olhar
        D
Hoje vivo assim, sem medo de errar.
               Em        C       G     D
Sem medo de errar.

E|----------------------------------------------------------------------------------------------------------|
B|----------------------------------------------------------------------------------------------------------|
G|-5-5-5-7-7-7-9-9-9-12-12-12-5-5-5-7-7-7-9-9-9-12-12-12-5-5-5-7-7-7-9-9-9-14-14-14-5-5-5-7-7-7-9-9-9-16-16-|
D|-x-x-x-x-x-x-x-x-x-xx-xx-xx-x-x-x-x-x-x-x-x-x-xx-xx-xx-x-x-x-x-x-x-x-x-x-xx-xx-xx-x-x-x-x-x-x-x-x-x-xx-xx-|
A|-3-3-3-5-5-5-7-7-7-10-10-10-3-3-3-5-5-5-7-7-7-10-10-10-3-3-3-5-5-5-7-7-7-12-12-12-3-3-3-5-5-5-7-7-7-14-14-|
E|----------------------------------------------------------------------------------------------------------|

Video Clip de Sem Medo de Errar


ACORDES PARA GUITARRA

PIANO UKELELE
Em
G
F
C
D
E5
G5
D5
C5


TOP 20: Las más tocadas de Vowe


Toca una Canción al Azar de Vowe

Acordes

Cerrar
Em
G
F
C
D
E5
G5
D5
C5

02.27


445