Por ahí van (Acordes)

Leo Quinteros

Subida por

Compartir


Imprimir FAQ
+A
-A

Texto

Desplazamiento

Transportador

Color de Fondo

Archivos

-A
+A
 
    
Intro:
  Do#m
G---------------
D---------------
A-4---2-4----2--
E---4------4----

  Fa#
G---------------
D-4---2-4----2--
A---4------4----
E---------------

  Mi
G---------------
D-2---0-2----0--
A---2------2----
E---------------

  La
G---------------
D---------------
A---------------
E-5-0-3-5--0-3--

  Si7
G-----------------
D-----------------
A-2-2-2-2-0-0-0-0-
E-----------------

G-----------
D---------2-
A-------4---  X4
E-0-0-0-----

Estrofas:
  Do#m
G---------------
D---------------  |
A-4---2-4----2--  |
E---4------4----  |
                  |
  Mi              |
G---------------  |
D-2---0-2----0--  |
A---2------2----  |
E---------------
                   > X 2
 La               /
G---------------  |
D---------------  |
A---------------  |
E-5-0-3-5--0-3--  |
                  |
Si7               |
G---------------  |
D---------------  |
A-2---0-2----0--  |
E---2------2----  /

Coro:
  Do#m
G---------------
D---------------
A-4---2-4----2--
E---4------4----

  Fa#
G---------------
D-4---2-4----2--
A---4------4----
E---------------

  Mi
G---------------
D-2---0-2----0--
A---2------2----
E---------------

  La
G---------------
D---------------
A---------------
E-5-0-3-5--0-3--

  Si7
G-------------------
D-------------------
A-2-2-2-2-0-0-0-0---
E-----------------0-

  Si7
G-----------------
D-----------------
A-2-2-2-2-0-0-0-0-
E-----------------

G-----------
D---------2-
A-------4---  X4
E-0-0-0-----

Si acaso el dia de hoy...
G-----------
D---------2-
A-------4---  (todo el rato)
E-0-0-0-----

Eso es todo, los acordes despues se repiten
de acuerdo a la cancion
ahi ustedes ven
esta todo si por si acaso
    
 



ACORDES PARA GUITARRA

PIANO UKELELE
Dmaj7
G
A7
D
Bm
Em
A
C#m
Cm
E
E7
Amaj7
F#m
Dsus
D7
B


TOP 20: Las más tocadas de Leo Quinteros


23.26

x