Bleeding Heart (Acordes)

Angra

Full Álbum: Rebirth (2001)
Subida por Sweetcrazy

Compartir


Cambiar Cifrado
Americano Latino

Cambiar Tonalidad
-1 +1
Imprimir FAQ
+A
-A

Texto

Desplazamiento

Transportador

Color de Fondo

Archivos

Mudar para Português

TONALIDAD, TAMAÑO, CIFRADO, SCROL.

Nos renovamos: Ahora puedes cambiar TODO haciendo clic en ICONO de la Guitarra () que aparece en la parte inferior de esta página.


LETRA CON ACORDES

Intro: Lick 1

Lick 1 ? Parte 1 de 2 
E|----------------------------------------------------|
B|-11------10------8------6-----4-----3---------------|
G|----0-------0------0------0-----0-----0-------------|
D|----------------------------------------------------|
A|-10---10------10--------6---6-----6-----------------|
E|----------------------------------------------------|

Lick 1 ? Parte 2 de 2 
E|----------------------------------------------------|
B|-3-----1-----3------8-----6----8--------------------|
G|---0-----0-----0------0-----0-----0-----------------|
D|----------------------------------------------------|
A|-3---3-----3--------8---8-----8---------------------|
E|----------------------------------------------------|


Primeira Parte:

Eb9
    Now I know that the end comes
C9
   You knew since the beginning
Eb9                            (lick 2)
    Didn't want to believe it's true

You are alone again
                      (lick 1)
My soul will be with you

Eb9
    Why is the clock even running
C9
   If my world isn't turning
Eb9                            (lick 2)
    Hear your voice in the doorway wind

You are alone again I'm only waiting


Dedilhado Primeira Parte:

   Eb9      C9       Eb9      C9
E|-------6--------3--------6--------3-------|
B|-------6--------3--------6--------3-------|
G|-----8--------5--------8--------5---------|
D|---8--------5--------8--------5-----------|
A|-6--------3--------6--------3-------------|
E|------------------------------------------|


Lick 2 ? Parte 1 de 2
E|----------------------------------------------------|
B|-11------10------11------10-----8-----10------------|
G|----0-------0-------0-------0-----0------0----------|
D|----------------------------------------------------|
A|-10---10------10---------8----8-----0---------------|
E|----------------------------------------------------|

Lick 2 ? Parte 2 de 2
E|----------------------------------------------------|
B|-8-----6-----8------10-----8-----10-----------------|
G|---0-----0-----0-------0-----0------0---------------|
D|----------------------------------------------------|
A|-6---6-----6--------8----8-----8--------------------|
E|----------------------------------------------------|

Refrão:

Bb                Cm
   You tear into pieces my heart
Gm
   Before you leave with no repentance
Eb             Bb
   I cried to you
                 Ab
My tears turning into blood
     F
I'm ready to surrender


Bb                 Cm
   You say that I take it too hard
Gm
   And all I ask is comprehension
Eb                Bb
   Bring back to you
                Ab
A piece of my broken heart
     F              Eb9  C9
I'm ready to surrender

Segunda Parte:

Eb9
    I remember the moments
C9
   Life was short for the romance
Eb9                            (lick 2)
    Like a rose it will fade away

I'm leaving everything

Eb9
    No regrets, war is over
C9
   The return of a soldier
Eb9                            (lick 2)
    Put my hands on my bleeding heart

I'm leaving all behind

No longer waiting

Refrão:

Bb                Cm
   You tear into pieces my heart
Gm
   Before you leave with no repentance
Eb             Bb
   I cried to you
                 Ab
My tears turning into blood
     F
I'm ready to surrender

Bb                 Cm
   You say that I take it too hard
Gm
   And all I ask is comprehension
Eb                Bb
   Bring back to you
                Ab
A piece of my broken heart
     F              Eb  Cm  Dm
I'm ready to surrender
      Eb         F9
I've waited for so long

Gm  F  Eb  Dm  Cm  Bb  Ab  F )


Refrão:

Bb                Cm
   You tear into pieces my heart
Gm
   Before you leave with no repentance
Eb             Bb
   I cried to you
                 Ab
My tears turning into blood
     F
I'm ready to surrender

Bb                 Cm
   You say that I take it too hard
Gm
   And all I ask is comprehension
Eb                Bb
   Bring back to you
                Ab
A piece of my broken heart
     F              Eb9  C9
I'm ready to surrender
                    Bb9
I'm ready to surrender

Video Clip de Bleeding Heart


ACORDES PARA GUITARRA

PIANO UKELELE
Eb9
C9
Bb
Cm
Gm
Eb
Ab
F
Dm
F9
Bb9


TOP 20: Las más tocadas de Angra


Toca una Canción al Azar de Angra

Acordes

Cerrar
Eb9
C9
Bb
Cm
Gm
Eb
Ab
F
Dm
F9
Bb9

13.03

x

104