Make Believe (Acordes)

Angra

Full Álbum: Holy Land (1996)
Subida por katiapineapple

Compartir


Cambiar Cifrado
Americano Latino

Cambiar Tonalidad
-1 +1
Imprimir FAQ
+A
-A

Texto

Desplazamiento

Transportador

Color de Fondo

Archivos

Mudar para Português

TONALIDAD, TAMAÑO, CIFRADO, SCROL.

Nos renovamos: Ahora puedes cambiar TODO haciendo clic en ICONO de la Guitarra () que aparece en la parte inferior de esta página.


LETRA CON ACORDES

Intro: E9  G  A9

   E9
E|--------0------------0----------0---------|
B|------9-----9------9-----9----9-----------|
G|-11-----------11-----------11-------------|
D|------------------------------------------|
A|------------------------------------------|
E|----0-----0------0-----0------------------|

   G/A  A9
E|-7-7--9-9-9-9-9---------------------------|
B|-0-0--0-0-0-0-0---------------------------|
G|-7-7--9-9-9-9-9---------------------------|
D|-5-5--7-7-7-7-7---------------------------|
A|-0-0--------------------------------------|
E|------------------------------------------|
   ? ?  ? ? ? ? ?

Primeira Parte:

E9
   Sat beside the meadow
 G9               A9
Watching weeds agrow
  E9
Cleaned up all the ashes
G9     A9
Of my soul

  E9
Wrote down my own sentence
 G9                A9
Now you take your way
 E9
Fades the last remembrance
G9               A9
Of your lovely pretty face


Interlúdio I:

B  A  F#m       B   A  E
I         after all
        B      G
Just a lonely man
          E9
A lonely heart

Segunda Parte:

Working on the future
  G9     A9
Floating on fate
 E9
Faced the circunstances
  G9         A9
Cleared up the shades, so

Interlúdio I:

   B
E|-------------2----------------------------|
B|-4-----5-----------5-----4p2--------------|
G|---4-----4-----4-----4-------4------------|
D|------------------------------------------|
A|-----2-----2-----2-----2------------------|
E|------------------------------------------|

   A      F#m
E|-----x-----------2------------------------|
B|-2-2-x--2--2---2---2----------------------|
G|-2-2-x--2----2-------2--------------------|
D|-2-2-x--4---------------------------------|
A|-0---x------------------------------------|
E|-----x--2---------------------------------|

   B
E|-------------2----------------------------|
B|-4-----5-----------5-----4p2--------------|
G|---4-----4-----4-----4-------4------------|
D|------------------------------------------|
A|-----2-----2-----2-----2------------------|
E|------------------------------------------|

   A      E
E|-----x-----------0------------------------|
B|-2-2-x--0--0---0---0----------------------|
G|-2-2-x--1----1-------1--------------------|
D|-2-2-x--2---------------------------------|
A|-0---x------------------------------------|
E|-----x--0---------------------------------|

   B                               G
E|-------------2-------------------3--------|
B|-4-----5-----------5-----4p2-----3--------|
G|---4-----4-----4-----4-------4---0--------|
D|---------------------------------0--------|
A|-----2-----2-----2-----2------------------|
E|---------------------------------3--------|

Refrão:
        C#m
Make believe
                          B
There's no sorrow in your eyes
           C#m
Can't you see
                                   B
We could never get back from the start
         A                    F#m
Minutes waiting, life's been wasted
               F#m7(5-)  F#º
Maybe I wanna die some   other day
         E9  G9  A9  E9  G9  A9
Another day

Interlúdio II:

B  A  F#m
D  C  Am
E  G/E

Interlúdio II:

   B
E|-------------2----------------------------|
B|-4-----5-----------5-----4p2--------------|
G|---4-----4-----4-----4-------4------------|
D|------------------------------------------|
A|-----2-----2-----2-----2------------------|
E|------------------------------------------|

   A      F#m
E|-----x-----------2------------------------|
B|-2-2-x--2--2---2---2----------------------|
G|-2-2-x--2----2-------2--------------------|
D|-2-2-x--4---------------------------------|
A|-0---x------------------------------------|
E|-----x--2---------------------------------|

   D
E|-2-----3-----5-----4-----2p0--------------|
B|---3-----3-----3-----3-------3------------|
G|-----2-----2-----2-----2------------------|
D|-0----------------------------------------|
A|------------------------------------------|
E|------------------------------------------|

   C      Am
E|-0-0-x--0--------0------------------------|
B|-2-2-x--1--1---1---1----------------------|
G|-0-0-x--2----2-------2--------------------|
D|-----x------------------------------------|
A|-3---x--0---------------------------------|
E|-----x------------------------------------|

   E
E|-4-----5-----7-----5p4---4----------------|
B|---5-----5-----5-----------5--------------|
G|-----4-----4-----4-----4-----4------------|
D|------------------------------------------|
A|------------------------------------------|
E|-0----------------------------------------|

   G/E
E|-7-----8-----10-----8p7-------------------|
B|---8-----8------8-------8-----------------|
G|-----7-----7------7-------7---------------|
D|------------------------------------------|
A|------------------------------------------|
E|-0----------------------------------------|

Terceira Parte:

 Bm        A               G
Hear the whispers of your hope
    F#m            E
The answer wasn't told
 Bm        A                E/G#
No, don't laugh seeing me cry
    G                F#7(11)  G  F#4(9-)  F#
The end I've left behind

Terceira Parte:

   Bm      A       G       F#m     E
E|-2-x-------x-------x-------x-------x------|
B|-3-x-3-----x-2-----x-3-----x-2-----x-0----|
G|-4-x-4-----x-2-----x-0-----x-2-----x-1----|
D|-4-x-4-----x-2-----x-0-----x-4-----x-2----|
A|-2-x---2-0-x---0---x-------x-------x------|
E|---x-------x-----3-x---3-2-x---2-0-x---0--|

   Bm      A       E/G#    G
E|---x-------x-------x-------x--------------|
B|---x-3-----x-2-----x-5-----x-3------------|
G|---x-4-----x-2-----x-4-----x-0------------|
D|---x-4-----x-2-----x-2-----x-0------------|
A|-2-x---2-0-x---0---x-------x--------------|
E|---x-------x-----4-x---4-3-x---3----------|

Refrão:

        C#m
Make believe
                          B
There's no sorrow in your eyes
           C#m
Can't you see
                                   B
We could never get back from the start
         A                    F#m
Minutes waiting, life's been wasted

           C#m
And I've tried
             B
Maybe you deny
          C#m
Words of peace
                       B
For the future of our lives
          C#m
Bring to me
                              B
Something else than a broken heart
         A                     F#m
I won't wait 'till my life is wasted
               F#m7(5-)  F#º    E9  G9  A9
Maybe I wanna die some   other day
         E9  G9  A9
Another day
         E9
Another day

Video Clip de Make Believe


ACORDES PARA GUITARRA

PIANO UKELELE
E9
G
A9
G/A
G9
B
A
F#m
E
C#m
F#m7b5
F#dim
D
C
Am
G/E
Bm
E/G#
F#11
F#


TOP 20: Las más tocadas de Angra


Toca una Canción al Azar de Angra

Acordes

Cerrar
E9
G
A9
G/A
G9
B
A
F#m
E
C#m
F#m7b5
F#dim
D
C
Am
G/E
Bm
E/G#
F#11
F#

06.02

x

129